» » »

The Kooks - You Don't Love Me Tabs

Artists:  A B C D E F G H I J K L M N O P Q R S T U V W X Y Z # 

You Don't Love Me Tabs

(ver. 2) Click to play this song!
The Kooks
 Rating:
4/5 (4 votes)

 You Don't Love Me lessons Tabs too difficult? Try these video lessons and learn fast
 
                -------------------------------------------------------------------------------
-------------------------------------------------------------------------------

This tab is for people who cant read or do chords. good luck!

Tuning:Standard

Main riff / verse 1
e|------------------------------------------|------------------------------------|
B|------------------------------------------|------------------------------------|
G|-------------------7-7-7-7-7-7--7---------|-------------------7-7-7-7-7-7-7-7--|
D|-7-7-7-7-7-7-7-77--7-7-7-7-7-7--7--5------|-7-7-7-7-7-7-7-77--7-7-7-7-7-7-7-7--|
A|-7-7-7-7-7-7-7-77--5-5-5-5-5-5--5--5------|-7-7-7-7-7-7-7-77--5-5-5-5-5-5-5-5--|
E|-5-5-5-5-5-5-5-55------------------3------|-5-5-5-5-5-5-5-55-------------------|

Chorus
e|-------3-3-3-33-3---------------------------3--3-----------------------------------------|
B|-1------------------3-3-3-33-3--3-3-3-33-3-----------------------------------------------|
G|--------------------4-4-4-44-4--4-4-4-44-4-----------------------------------------------|
D|-2------------------4-4-4-44-4--4-4-4-44-4-------------7-7-7-7-7-7-7-77-7-7-7-7-7-7-7-77-|
A|-3-----2-2-2-22-2---2-2-2-22-2--2-2-2-22-2--2--2-------7-7-7-7-7-7-7-77-7-7-7-7-7-7-7-77-|
E|-------3-3-3-33-3---------------------------3--3-------5-5-5-5-5-5-5-55-5-5-5-5-5-5-5-55-|


Main riff / verse 2
e|------------------------------------------|------------------------------------|
B|------------------------------------------|------------------------------------|
G|-------------------7-7-7-7-7-7--7---------|-------------------7-7-7-7-7-7-7-7--|
D|-7-7-7-7-7-7-7-77--7-7-7-7-7-7--7--5------|-7-7-7-7-7-7-7-77--7-7-7-7-7-7-7-7--|
A|-7-7-7-7-7-7-7-77--5-5-5-5-5-5--5--5------|-7-7-7-7-7-7-7-77--5-5-5-5-5-5-5-5--|
E|-5-5-5-5-5-5-5-55------------------3------|-5-5-5-5-5-5-5-55-------------------|

Bridge
(sorry i havent tabbed the bridge, but ill put it in commens as soon as i can)

pre verse
e|-------|
B|-------|
G|-7~----|
D|-7~----|
A|-5~----|
E|-------|

Main riff / verse 3
e|------------------------------------------|------------------------------------|
B|------------------------------------------|------------------------------------|
G|-------------------7-7-7-7-7-7--7---------|-------------------7-7-7-7-7-7-7-7--|
D|-7-7-7-7-7-7-7-77--7-7-7-7-7-7--7--5------|-7-7-7-7-7-7-7-77--7-7-7-7-7-7-7-7--|
A|-7-7-7-7-7-7-7-77--5-5-5-5-5-5--5--5------|-7-7-7-7-7-7-7-77--5-5-5-5-5-5-5-5--|
E|-5-5-5-5-5-5-5-55------------------3------|-5-5-5-5-5-5-5-55-------------------|

chorus/ pre solo
e|------3-3------------------------------------------------------------|
B|-1-1-------3-3-3-3-3-3-3-3-3-3-3-3-3-3-3-3---------------------------|
G|-----------4-4-4-4-4-4-4-4-4-4-4-4-4-4-4-4---------------------------|
D|-2-2-------4-4-4-4-4-4-4-4-4-4-4-4-4-4-4-4--4-4-4-4-4-4-4-4---7------|
A|-3-3--2-2--2-2-2-2-2-2-2-2-2-2-2-2-2-2-2-2--4-4-4-4-4-4-4-4---7-x32--|
E|------3-3-----------------------------------2-2-2-2-2-2-2-2---5------|

Main riff (guitar 2) (at the same time as solo)
e|------------------------------------------|
B|------------------------------------------|
G|-------------------7-7-7-7-7-7--7---------|
D|-7-7-7-7-7-7-7-77--7-7-7-7-7-7--7--5------|
A|-7-7-7-7-7-7-7-77--5-5-5-5-5-5--5--5------|
E|-5-5-5-5-5-5-5-55------------------3------|

solo (guitar 1)
e|-9-8-7-6-5-4-4-4-2--2-2-2-------------------------------------|
B|------------5---5------5-5------------------------------------|
G|---------------------------6-5-4-3-2-1-1-1-1--1-1-1-----------|
D|--------------------------------------2---2------2-2----------|
A|--------------------------------------------------------------|
E|--------------------------------------------------------------|

Main riff / verse 4
e|------------------------------------------|
B|------------------------------------------|
G|-------------------7-7-7-7-7-7--7---------|
D|-7-7-7-7-7-7-7-77--7-7-7-7-7-7--7--5------| x2
A|-7-7-7-7-7-7-7-77--5-5-5-5-5-5--5--5------|
E|-5-5-5-5-5-5-5-55------------------3------|


Outro
e|----------------|
B|----------------|
G|----------------|
D|----------------|
A|----------------|
E|--7~----7~------|


| /  slide up
|   slide down
| h  hammer-on
| p  pull-off
| ~  vibrato
| +  harmonic
| x  Mute note
===============================================================================
            
Submit corrections


        You Don't Love Me lessons Hard to play? Try these video lessons and learn fast You Don't Love Me lessons
        
↑ Back to top | Tablatures and chords for acoustic guitar and electric guitar, ukulele, drums are parodies/interpretations of the original songs. You may use it for private study, scholarship, research or language learning purposes only