» » »

The Kooks - Time Awaits Tabs

Artists:  A B C D E F G H I J K L M N O P Q R S T U V W X Y Z # 

Time Awaits Tabs

(ver. 2) Click to play this song!
The Kooks
 Rating:
4/5 (4 votes)

 Time Awaits lessons Tabs too difficult? Try these video lessons and learn fast
 
                (Intro)
SONG-TIME AWAITS
ARTIST-THE KOOKS
LYRICS BY LUKE PRITCHARD AND MAX RUFFERTY (THE KOOKS)
MUSIC BY LUKE PRITCHARD, HUGH HARRIS, MAX RUFFERTY AND PAUL GARRED(THE KOOKS)
TAB DIFFICULTY-INTERMEDIATE (NOT THAT HARD BUT HARDER THAN NOVICE)
TUNING-STANDARD

i am 99% sure this is correct so enjoy.

gtr 1 acoustic

|-----------------------------------|------------------------------|
|-T---------------------------------|------------------------------|
|-A---------5----3--x-0--------0--0-|----0-x--3--x-0---------------|
|-B--------------3--x-0-----3-------|----0-x--3--x-0---3-----------|
|---------5--------------5--------1-|----------------5----3h5------|
|-----0h3-----x---------------------|-3----------------------------|

|-----------------------------------|------------------------------|
|-T---------------------------------|------------------------------|
|-A-----0-x---3--x-0-----0-----0----|-----0-x--3--x-0-----0--------|
|-B-----0-x---3--x-0-3---0-----0----|-----0-x--3--x-0--3--0--------|
|---------------------------1-------|-------------------------1----|
|----3------------------------------|--3---------------------------|

|-----------------------------------|------------------------------|
|-T---------------------------------|------------------------------|
|-A-----0-x---3--x-0----------------|------------------------------|
|-B-----0-x---3--x-0--3---3---------|-----0-x--3--x-0-----3--x--0--|
|----------------------------3h5----|-----0-x--3--x-0--3--0--x-----|
|----3------------------------------|--3---------------------------|

hope you enjoy it ive only transcribed this much so far so if i find out more i will post it.
            
Submit corrections


        Time Awaits lessons Hard to play? Try these video lessons and learn fast Time Awaits lessons
        
↑ Back to top | Tablatures and chords for acoustic guitar and electric guitar, ukulele, drums are parodies/interpretations of the original songs. You may use it for private study, scholarship, research or language learning purposes only