» » »

The Kooks - Sway Tabs

Artists:  A B C D E F G H I J K L M N O P Q R S T U V W X Y Z # 

Sway Tabs

(ver. 1) Click to play this song!
The Kooks
 Rating:
4/5 (4 votes)

 Sway lessons Tabs too difficult? Try these video lessons and learn fast
 
                -------------------------------------------------------------------------------
-------------------------------------------------------------------------------


Tuning: Standard for the lead part (gtr 1)
        Capo 3rd for the rythm part (gtr 2, not there...)


e|----------------------8~-------8~----8~-------------------Say-whatever...--|
B|-----------/8~~------------------------------------------------------------|
G|---------------------------------------------------------------------------|
D|---------------------------------------------7/8\7\5\3~--------------------|
A|-/5~--/8~--------8~-------8~------8~----8~-------------5\------------------|
E|---------------------------------------------------------------------------|

e|-------------------------------------------------5--5-------8~--8----------|
B|----------------------------------6--6~~--8~-----6--6--6--8-------8~----6--|
G|-------------------------------5p3---------------7--7-----------------7----|
D|-----3~------3--3~~------3~-5p3--------------------------------------------|
A|-5-5----5p3h5--------5-5---------------------------------------------------|
E|---------------------------------------------------------------------------|

e|------------------5-5---6---8---10-8--6-5----------------------------------|
B|-----6~-----6---6---6---8---10--11-10-8-6-------------------6------6-------|
G|--5h7----5h7--7---------------------------------------------7------7-------|
D|----------------------------------------------3~------3--3~-7------7-------|
A|------------------------------------------5-5----5p3h5------5------5-------|
E|---------------------------------------------------------------------------|

e|-----------------|
B|-6---10----------|
G|-7---10--7---7---|
D|-7---10--8---8---|
A|-5---8---8---8---|
E|---------6---6---|


| /  slide up
| \  slide down
| h  hammer-on
| p  pull-off
| ~  vibrato
| +  harmonic
| x  Mute note
===============================================================================
            
Submit corrections


        Sway lessons Hard to play? Try these video lessons and learn fast Sway lessons
        
↑ Back to top | Tablatures and chords for acoustic guitar and electric guitar, ukulele, drums are parodies/interpretations of the original songs. You may use it for private study, scholarship, research or language learning purposes only