» » »

The Kooks - Stormy Weather Tabs

Artists:  A B C D E F G H I J K L M N O P Q R S T U V W X Y Z # 

Stormy Weather Tabs

(ver. 2) Click to play this song!
The Kooks
 Rating:
2.3/5 (26 votes)

 Stormy Weather lessons Tabs too difficult? Try these video lessons and learn fast
 
                Intro (while the bass is playing)

Guitar 2:
  
e|-----16-16-16-x-16-x-19--/-----------------21-21-21-x-21-x-21------/---|
B|-----16-16-16-x-16-x-16--/-----------------21-21-21-x-21-x-21------/---|
G|-----16-16-16-x-16-x-16--/-----------------21-21-21-x-21-x-21------/---|
D|-----------------------------------------------------------------------|
A|-----------------------------------------------------------------------|
E|-----------------------------------------------------------------------|

Basically the main chord progression, which will play the same way throughout 
most of the song, with the lead guitars part up top, and rhythm below.

e|--4--4--4--4-x------------------4---4---4---4---4---4---4---4-x----|
B|--4--4--4--4-x------------------5---5---5---5---5---5---5---5-x----|
G|--4--4--4--4-x---1--1--1--1-x---6---6---6---6---6---6---6---6-x----|
D|--6--6--6--6-x---2--2--2--2-x---6---6---6---6---6---6---6---6-x----|
A|--6--6--6--6-x---2--2--2--2-x---4---4---4---4---4---4---4---4-x----|
E|--4--4--4--4-x---0--0--0--0-x--------------------------------------|
 |                                                                   |  
 |                                                                   | x2 
 |                                                                   |
e|--4--4--4--4-x------------------9---9---9---9---9---9---9---9------|
B|--4--4--4--4-x---9--9--9--9-x---9---9---9---9---9---9---9---9------|
G|--4--4--4--4-x---9--9--9--9-x---9---9---9---9---9---9---9---9------|
D|--6--6--6--6-x---9--9--9--9-x---11--11--11--11--11--11--11--11-----|
A|--6--6--6--6-x---7--7--7--7-x---11--11--11--11--11--11--11--11-----|
E|--4--4--4--4-x------------------9---9---9---9---9---9---9---9------|

     'Yes I like stormy weather' /  'from my window-sill'
                                *       *       *       *     (* scratching)
e|--4-----------------------------x---4---x---4---x---4---x---4------|
B|--4-----------------------------x---5---x---5---x---5---x---5------|
G|--4--------------1--------------x---6---x---6---x---6---x---6------|
D|--6--------------2--------------x---6---x---6---x---6---x---6------|
A|--6--------------2--------------x---4---x---4---x---4---x---4------|
E|--4--------------0--------------x-------x-------x-------x----------|
 |                                                                   |  
 |                                                                   |
 |                                                                   |
e|--4--4--4--4-x------------------9---9---9---9---9---9---9---9------|
B|--4--4--4--4-x---9--9--9--9-x---9---9---9---9---9---9---9---9------|
G|--4--4--4--4-x---9--9--9--9-x---9---9---9---9---9---9---9---9------|
D|--6--6--6--6-x---9--9--9--9-x---11--11--11--11--11--11--11--11-----|
A|--6--6--6--6-x---7--7--7--7-x---11--11--11--11--11--11--11--11-----|
E|--4--4--4--4-x------------------9---9---9---9---9---9---9---9------|

'You ain't, yeah, you ain't so clever'  /  'You got it all made up'

e|--4-----------------------------x---4---x---4---x---4-x-4-4--4-----|
B|--4-----------------------------x---5---x---5---x---5-x-5-5--5-----|
G|--4--------------1--------------x---6---x---6---x---6-x-6-6--6-----|
D|--6--------------2--------------x---6---x---6---x---6-x-6-6--6-----|
A|--6--------------2--------------x---4---x---4---x---4-x-4-4--4-----|
E|--4--------------0--------------x-------x-------x------------------|
 |                                                                   |  
 |                                                                   |
 |                                                                   |
e|--4--4--4--4-x------------------9---9---9---9---9---9---9---9------|
B|--4--4--4--4-x---9--9--9--9-x---9---9---9---9---9---9---9---9------|
G|--4--4--4--4-x---9--9--9--9-x---9---9---9---9---9---9---9---9------|
D|--6--6--6--6-x---9--9--9--9-x---11--11--11--11--11--11--11--11-----|
A|--6--6--6--6-x---7--7--7--7-x---11--11--11--11--11--11--11--11-----|
E|--4--4--4--4-x------------------9---9---9---9---9---9---9---9------|

'But it feels like love, love, love'

e|-------------------------------------------------------------------|
B|-------------------------------------------------------------------|
G|-------------------------------------------------------------------|
D|-------------------------------------------------------------------|
A|-------------------------------------------------------------------|
E|-------------------------------------------------------------------|
 |                                                                   |  
 |                                                                   |
 |                                                                   |
e|-------------------------------------------------------------------|
B|-------------------------------------------------------------------|
G|-------------------------------------------------------------------|
D|---------------2--2--2--2------------------------------------------|
A|----------------------------4---4---4---4---4---4---4---4----------|
E|--4--4--4--4-------------------------------------------------------|

'Oh yes, it feels like touch, touch, touch'

e|-------------------------------------------------------------------|
B|-------------------------------------------------------------------|
G|------------------------/------------------------------------------|
D|-------------------------------------------\-----------------------|
A|-------------------------------------------------------------------|
E|-------------------------------------------------------------------|
 |                                                                   |  
 |                                                                   |
 |                                                                   |
e|--------------------------------4---4---4---4---4---4---4----------|
B|--------------------------------5---5---5---5---5---5---5----------|
G|--------------------------------6---6---6---6---6---6---6----------|
D|---------------2--2--2--2-------6---6---6---6---6---6---6----------|
A|----------------------------4---4---4---4---4---4---4---4----------|
E|--4--4--4--4-------------------------------------------------------|

'I sit around to pass the time' ... 
e|--4--4--4--4-x------------------4---4---4---4---4---4---4---4-x----|
B|--4--4--4--4-x------------------5---5---5---5---5---5---5---5-x----|
G|--4--4--4--4-x---1--1--1--1-x---6---6---6---6---6---6---6---6-x----|
D|--6--6--6--6-x---2--2--2--2-x---6---6---6---6---6---6---6---6-x----|
A|--6--6--6--6-x---2--2--2--2-x---4---4---4---4---4---4---4---4-x----|
E|--4--4--4--4-x---0--0--0--0-x--------------------------------------|
 |                                                                   |  
 |                                                                   | 
 |                                                                   |
e|--4--4--4--4-x------------------9---9---9---9---9---9---9---9------|
B|--4--4--4--4-x---9--9--9--9-x---9---9---9---9---9---9---9---9------|
G|--4--4--4--4-x---9--9--9--9-x---9---9---9---9---9---9---9---9------|
D|--6--6--6--6-x---9--9--9--9-x---11--11--11--11--11--11--11--11-----|
A|--6--6--6--6-x---7--7--7--7-x---11--11--11--11--11--11--11--11-----|
E|--4--4--4--4-x------------------9---9---9---9---9---9---9---9------|

'And I live in world oh so small' ...
e|--4--4--4--4-x------------------4---4---4---4---4---4---4---4-x----|
B|--4--4--4--4-x------------------5---5---5---5---5---5---5---5-x----|
G|--4--4--4--4-x---1--1--1--1-x---6---6---6---6---6---6---6---6-x----|
D|--6--6--6--6-x---2--2--2--2-x---6---6---6---6---6---6---6---6-x----|
A|--6--6--6--6-x---2--2--2--2-x---4---4---4---4---4---4---4---4-x----|
E|--4--4--4--4-x---0--0--0--0-x--------------------------------------|
 |                                                                   |  
 |                                                                   | 
 |                                                                   |
e|--4--4--4--4-x------------------9---9---9---9---9---9---9---9------|
B|--4--4--4--4-x---9--9--9--9-x---9---9---9---9---9---9---9---9------|
G|--4--4--4--4-x---9--9--9--9-x---9---9---9---9---9---9---9---9------|
D|--6--6--6--6-x---9--9--9--9-x---11--11--11--11--11--11--11--11-----|
A|--6--6--6--6-x---7--7--7--7-x---11--11--11--11--11--11--11--11-----|
E|--4--4--4--4-x------------------9---9---9---9---9---9---9---9------|

And for the next bit, strumming pattern varies, but both guitars just play the same chords 
but in different spots on the fretboard.

Guitar 1:  G#m     B       E               x2
        e|---4---|--7--|-----|
        B|---4---|--7--|--9--|
        G|---4---|--8--|--9--|
        D|---6---|--9--|--9--|
        A|---6---|--9--|--7--|
        E|---4---|--7--|-----|


Guitar 2:  G#m     B       E               x2
        e|---4---|--7--|-----|
        B|---4---|--7--|-----|
        G|---4---|--8--|--1--|
        D|---6---|--9--|--2--|
        A|---6---|--9--|--2--|
        E|---4---|--7--|--0--|

        G#m       B           E

'But it feels like love, love, love'

           G#m        B             E

'Oh yes, it feels like touch, touch, touch'


For the next bit, the rhythm guitar strums the chords shown throughout, while the 
lead solos.


'what did I say?' ...

e|--------------------------------------------------------------------------|
B|--------------------------------------------------------------------------|
G|--------------------------------------------------------------------------|
D|----------4---------------------------------------------------------------|
A|--2---4h6-----6\4---2---2---4---4--2--4-/-6---------4---4--2--4--6--------|
E|---------------------------------------------4---------------------4--4---|
 |                                                                          |
 |                                                                          |
 |                                                                          |
e|--7-------------------------4----------------4------4---------------------|
B|--7-------------------------5----------------4------5---------------------|
G|--8-------------------------6----------------4------6---------------------|
D|--9—strum-throughout--------6----------------6------6---------------------|
A|--9-------------------------4----------------6------4---------------------|
E|--7------------------------------------------4----------------------------|


'Oh, I didn't mean it'

e|-------------------4--4-x-4-4---|
B|---9--9--9--9-x----5--5-x-5-5---|
G|---9--9--9--9-x----6--6-x-6-6---|
D|---9--9--9--9-x----6--6-x-6-6---|
A|---7--7--7--7-x----4--4-x-4-4---|
E|--------------------------------|
 |                                |     
 |                                |
 |                                |
e|-------------------4--4-x-4-4---|
B|-------------------5--5-x-5-5---|
G|---1--1--1--1-x----6--6-x-6-6---|
D|---2--2--2--2-x----6--6-x-6-6---|
A|---2--2--2--2-x----4--4-x-4-4---|
E|---0--0--0--0-x-----------------|

'what did I do?' ...

e|------------------------------------------------|
B|------------------------------------------------|
G|------------------------------------------------|
D|----------4-------------------------------------|
A|--2---4h6-----6\4---2---2---4---4--2--4-/-6-----|
E|----------------------4----------------------4--|
 |                                                |
 |                                                |
 |                                                |
e|--7-------------------------4----------------4--|
B|--7-------------------------5----------------4--|
G|--8-------------------------6----------------4--|
D|--9—strum-throughout--------6----------------6--|
A|--9-------------------------4----------------6--|
E|--7------------------------------------------4--|


'Oh, I didn't mean it' ...

e|--------0----0----------0--|
B|--------0--------0----x-0--|
G|---1----1-------------x-1--|
D|---2----2-------------x-2--|
A|---2------------------x-2--|
E|---0--------------------0--|
 |                           |  
 |                           |
 |                           |
e|---------------------------|
B|---9--9--9--9--9--9--9--9--|
G|---9--9--9--9--9--9--9--9--|
D|---9--9--9--9--9--9--9--9--|
A|---7--7--7--7--7--7--7--7--|
E|---------------------------|

'Oh, oh, I didn't mean it!'

e|--4---4---4---4---4---4---4---4-x----|
B|--5---5---5---5---5---5---5---5-x----|
G|--6---6---6---6---6---6---6---6-x----|
D|--6---6---6---6---6---6---6---6-x----|
A|--4---4---4---4---4---4---4---4-x----|
E|-------------------------------------|
 |                                     |        
 |                                     |
 |                                     |
e|--4---4---4---4---4---4---4---4-x----|
B|--5---5---5---5---5---5---5---5-x----|
G|--6---6---6---6---6---6---6---6-x----|
D|--6---6---6---6---6---6---6---6-x----|
A|--4---4---4---4---4---4---4---4-x----|
E|-------------------------------------|

For the solo, I'm just going to tab out the lead part, since the rhythm guitar 
just plays the intro chords of G#m, E and C#m. 

Guitar 1:
                                (w: wammy bar)
e|--------------------------------------------------------------|
B|--------------------------------------------------------------|
G|--8--8-8-8-8~---8-x-x--8--6-------------8~------8~-8----8~----|
D|-------------------------------6w~----6-------6-------6-------|
A|--------------------------------------------------------------|
E|--------------------------------------------------------------|

          *                                 **
e|-----------------------------------------------------------------------|
B|------12b---12~--12~---12~---12~-----14---16~-16~-16~-16~-16~-16~-16~--|
G|--/13----------13~--13~---13~-------------13~-13~-13~-13~-13~-13~-13~--|
D|-----------------------------------------------------------------------|
A|-----------------------------------------------------------------------|
E|---------------------------------------------------------------------\-|

Note:
        * slow-ish bend

        ** not at all too sure about these notes, but the closest my ear could get haha, feel 
           free to correct me on this!

'I'm not saying it's all made up' ...

e|--4-----------------------------------4-----------------------4---4------|
B|--4-----------------------------------5-----------------------5---5------|
G|--4-----------------1-----------------6-----------------------6---6------|
D|--6-----------------2-----------------6-----------------------6---6------|
A|--6-----------------2-----------------4-----------------------4---4------|
E|--4-----------------0----------------------------------------------------|
 |                                                                         |    
 |                                                                         |
 |                                                                         |
e|--4-x-4-x-4-x-4-x---------------------9---9---9---9---9---9---9---9------|
B|--4-x-4-x-4-x-4-x---9-x-9-x-9-x-9-x---9---9---9---9---9---9---9---9------|
G|--4-x-4-x-4-x-4-x---9-x-9-x-9-x-9-x---9---9---9---9---9---9---9---9------|
D|--6-x-6-x-6-x-6-x---9-x-9-x-9-x-9-x---11--11--11--11--11--11--11--11-----|
A|--6-x-6-x-6-x-6-x---7-x-7-x-7-x-7-x---11--11--11--11--11--11--11--11-----|
E|--4-x-4-x-4-x-4-x---------------------9---9---9---9---9---9---9---9------|

'But I'll think out another song' ...

e|--4-----------------------------------x---4---x---4---x---4----4---4-----|
B|--4-----------------------------------x---5---x---5---x---5----5---5-----|
G|--4-----------------1-----------------x---6---x---6---x---6----6---6-----|
D|--6-----------------2-----------------x---6---x---6---x---6----6---6-----|
A|--6-----------------2-----------------x---4---x---4---x---4----4---4-----|
E|--4-----------------0----------------------------------------------------|
 |                                                                         |    
 |                                                                         |
 |                                                                         |
e|--4-x-4-x-4-x-4-x---------------------9---9---9---9---9---9---9---9------|
B|--4-x-4-x-4-x-4-x---9-x-9-x-9-x-9-x---9---9---9---9---9---9---9---9------|
G|--4-x-4-x-4-x-4-x---9-x-9-x-9-x-9-x---9---9---9---9---9---9---9---9------|
D|--6-x-6-x-6-x-6-x---9-x-9-x-9-x-9-x---11--11--11--11--11--11--11--11-----|
A|--6-x-6-x-6-x-6-x---7-x-7-x-7-x-7-x---11--11--11--11--11--11--11--11-----|
E|--4-x-4-x-4-x-4-x---------------------9---9---9---9---9---9---9---9------|

And now back to this section with these chords:

        G#m       B           E

'But it feels like love, love, love'

           G#m        B             E

'Oh yes, it feels like touch, touch, touch'

'what did I say?' ...

e|--------------------------------------------------------------------------|
B|--------------------------------------------------------------------------|
G|--------------------------------------------------------------------------|
D|----------4---------------------------------------------------------------|
A|--2---4h6-----6\4---2---2-3-4---4--2--4-/-6---------4---4--2--4--6--------|
E|---------------------------------------------4---------------------4--4---|
 |                                                                          |
 |                                                                          |
 |                                                                          |
e|--7-------------------------4----------------4------4---------------------|
B|--7-------------------------5----------------4------5---------------------|
G|--8-------------------------6----------------4------6---------------------|
D|--9—strum-throughout--------6----------------6------6---------------------|
A|--9-------------------------4----------------6------4---------------------|
E|--7------------------------------------------4----------------------------|

'Oh, I didn't mean it'

e|-------------------4--4-x-4-4---|
B|---9--9--9--9-x----5--5-x-5-5---|
G|---9--9--9--9-x----6--6-x-6-6---|
D|---9--9--9--9-x----6--6-x-6-6---|
A|---7--7--7--7-x----4--4-x-4-4---|
E|--------------------------------|
 |                                |     
 |                                |
 |                                |
e|-------------------4--4-x-4-4---|
B|-------------------5--5-x-5-5---|
G|---1--1--1--1-x----6--6-x-6-6---|
D|---2--2--2--2-x----6--6-x-6-6---|
A|---2--2--2--2-x----4--4-x-4-4---|
E|---0--0--0--0-x-----------------|

'what did I do?' ...

e|---------------------------------------------------------------------------|
B|---------------------------------------------------------------------------|
G|--------------4---6---8~---------------------------------------------------|
D|----------4h6-------------------------------------------------------2------|
A|--2---4h6-------------------4---4--2--4-/-6---------4---4--2--4--6---------|
E|---------------------------------------------4--4---------------------4--4-|
 |                                                                           |
 |                                                                           | 
 |                                                                           |
e|--7-------------------------4----------------4------4----------------------|
B|--7-------------------------5----------------4------5----------------------|
G|--8-------------------------6----------------4------6----------------------|
D|--9—strum-throughout--------6----------------6------6----------------------|
A|--9-------------------------4----------------6------4----------------------|
E|--7------------------------------------------4-----------------------------|

'Oh, I didn't mean it' ...

e|--------0----0----------0--|
B|--------0--------0----x-0--|
G|---1----1-------------x-1--|
D|---2----2-------------x-2--|
A|---2------------------x-2--|
E|---0--------------------0--|
 |                           |  
 |                           |
 |                           |
e|---------------------------|
B|---9--9--9--9--9--9--9--9--|
G|---9--9--9--9--9--9--9--9--|
D|---9--9--9--9--9--9--9--9--|
A|---7--7--7--7--7--7--7--7--|
E|---------------------------|

'Oh, oh, I didn't mean it!'

e|--4---4---4---4---4---4---4---4-x----|
B|--5---5---5---5---5---5---5---5-x----|
G|--6---6---6---6---6---6---6---6-x----|
D|--6---6---6---6---6---6---6---6-x----|
A|--4---4---4---4---4---4---4---4-x----|
E|-------------------------------------|
 |                                     |        
 |                                     |
 |                                     |
e|--4---4---4---4---4---4---4---4-x----|
B|--5---5---5---5---5---5---5---5-x----|
G|--6---6---6---6---6---6---6---6-x----|
D|--6---6---6---6---6---6---6---6-x----|
A|--4---4---4---4---4---4---4---4-x----|
E|-------------------------------------|

And we have a bit of a break for the bass here then:

e|-------------------------------------------------------------------------------|
B|-------------------------------------------------------------------------------|
G|-------------------------------------------------------------------------------|
D|-------------------------------------------------------------------------------|
A|-------------------------------------------------------------------------------|
E|-------------------------------------------------------------------------------|
 |                                                                               |
 |                                                                               |
 |                                                                               |
e|-x-x-x-16-16-x-16-16-x-x-x-16-16-16-x-x-x-x-19-19-x-x-x-x-x-x-21-21-x-x-21-21--|
B|-x-x-x-16-16-x-16-16-x-x-x-16-16-16-x-x-x-x-16-16-x-x-x-x-x-x-21-21-x-x-21-21--|
G|-x-x-x-16-16-x-16-16-x-x-x-16-16-16-x-x-x-x-16-16-x-x-x-x-x-x-21-21-x-x-21-21--|
D|-------------------------------------------------------------------------------|
A|-------------------------------------------------------------------------------|
E|-------------------------------------------------------------------------------|

e|-----------------------------------------|
B|-----------------------------------------|
G|--------------8~----------8~---------8~--|
D|--------------9~----------9~---------9~--|
A|-----------------------------------------|
E|-----------------------------------------|
 |                                         |
 |                                         |
 |                                         |
e|-x-x-x-x-x-x-16-x-x-16-------------------|
B|-x-x-x-x-x-x-16-x-x-16-------------------|
G|-x-x-x-x-x-x-16-x-x-16-------------------|
D|-----------------------------------------|
A|-----------------------------------------|
E|-----------------------------------------|

'And it feels like love, love, love'

        'Yes it feels, like touch, touch, touch'

Here, for the rest of the song, both guitars play the same chords, but at 
different places along the fretboard.

Guitar 1:   B      E    C#m             
        e|--7--|-----|--4--|
        B|--7--|--9--|--5--|
        G|--8--|--9--|--6--|
        D|--9--|--9--|--6--|
        A|--9--|--7--|--4--|
        E|--7--|-----|-----|


Guitar 2:   B      E    C#m             
        e|--7--|-----|--4--|
        B|--7--|-----|--5--|
        G|--8--|--1--|--6--|
        D|--9--|--2--|--6--|
        A|--9--|--2--|--4--|
        E|--7--|--0--|-----|

        B         E          C#m

'But it feels like love, love, love'

            B         E            C#m

'Oh yes, it feels like touch, touch, touch'            
Submit corrections


        Stormy Weather lessons Hard to play? Try these video lessons and learn fast Stormy Weather lessons
        
↑ Back to top | Tablatures and chords for acoustic guitar and electric guitar, ukulele, drums are parodies/interpretations of the original songs. You may use it for private study, scholarship, research or language learning purposes only