» » »

The Kooks - Sofa Song Tabs

Artists:  A B C D E F G H I J K L M N O P Q R S T U V W X Y Z # 

Sofa Song Tabs

(ver. 1) Click to play this song!
The Kooks
 Rating:
4/5 (4 votes)

 Sofa Song lessons Tabs too difficult? Try these video lessons and learn fast
 
                i think this is how it goes...

INTRO
  d  d  u d u d  u u   u u         u u u u
--4--4--4-4-4-4--0-0---0-0        -4-4-4-4-2-2-2-2--|
--4--4--4-4-4-4--0-0---0-0        -5-5-5-5-2-2-2-2--|
--6--6--6-6-6-6--1-1---1-1  x3    -6-6-6-6-2-2-2-2--| x1
--6--6--6-6-6-6--2-2---2-2        -6-6-6-6-4-4-4-4--|
--6--6--6-6-6-6--2-2---2-2        -4-4-4-4-4-4-4-4--|
--4--4--4-4-4-4--0-0---0-0        -x-x-x-x-2-2-2-2--|


VERSE
  d  d  u d u d   u u   u u
--4--4--4-4-4-4---7-7---7-7--12--12--12-12-12---7-7-7--11-11---|
--4--4--4-4-4-4---7-7---7-7--12--12--12-12-12---7-7-7--11-11---|
--6--6--6-6-6-6---8-8---8-8--13--13--13-13-13---8-8-8--11-11---|  x4
--6--6--6-6-6-6---9-9---9-9--14--14--14-14-14---9-9-8--14-14---|
--6--6--6-6-6-6---9-9---9-9--14--14--14-14-14---9-9-9--14-14---|
--4--4--4-4-4-4---7-7---7-7--12--12--12-12-12---7-7-7--11-11---|

CHORUS 1
  d  d  u d u d   u u   u u
--4--4--4-4-4-4---7-7---7-7--2--2--2-2-2-2--4-4--4-4--|
--4--4--4-4-4-4---7-7---7-7--2--2--2-2-2-2--6-6--6-6--|
--6--6--6-6-6-6---8-8---8-8--3--3--3-3-3-3--6-6--6-6--| x2
--6--6--6-6-6-6---9-9---9-9--4--4--4-4-4-4--6-6--6-6--|
--6--6--6-6-6-6---9-9---9-9--4--4--4-4-4-4--4-4--4-4--|
--4--4--4-4-4-4---7-7---7-7--2--2--2-2-2-2--x-x--x-x--|


Now the solo i had to work this out but its sumthing like this...


--------8----11--8----11---13----14/b---14/b---14/b-13-11-h13--13--13------|

--13p11----11--------------------------------------------------|
--------13----13p11--13p11----11-------------------------------|
---------------------------14----14p11--14p11----11--------14--|b
----------------------------------------------14----14p11------|


----------------------------------------------|
-15-14-12----------------------12-14-14h15p14-|
----------14-13-11h13-13s14-14----------------|
----------------------------------------------|
----------------------------------------------|
----------------------------------------------|


CHORUS 2

  d  d  u d u d   u u   u u
--4--4--4-4-4-4---7-7---7-7--12--12--12-12-12---7-7-7--11-11---|
--4--4--4-4-4-4---7-7---7-7--12--12--12-12-12---7-7-7--11-11---|
--6--6--6-6-6-6---8-8---8-8--13--13--13-13-13---8-8-8--11-11---|  x4
--6--6--6-6-6-6---9-9---9-9--14--14--14-14-14---9-9-8--14-14---|
--6--6--6-6-6-6---9-9---9-9--14--14--14-14-14---9-9-9--14-14---|
--4--4--4-4-4-4---7-7---7-7--12--12--12-12-12---7-7-7--11-11---|

the song goes:
Intro
Verse
Chorus1
Solo
Verse
Chorus2
bass and drum fill
Chorus2


thankyou to bruce and
            
Submit corrections


        Sofa Song lessons Hard to play? Try these video lessons and learn fast Sofa Song lessons
        
↑ Back to top | Tablatures and chords for acoustic guitar and electric guitar, ukulele, drums are parodies/interpretations of the original songs. You may use it for private study, scholarship, research or language learning purposes only