» » »

The Kooks - See The Sun Tabs

Artists:  A B C D E F G H I J K L M N O P Q R S T U V W X Y Z # 

See The Sun Tabs

(ver. 3) Click to play this song!
The Kooks
 Rating:
4/5 (4 votes)

 See The Sun lessons Tabs too difficult? Try these video lessons and learn fast
 
                e|---------------------------------------------------------------------------|
B|----3s4-4-3----3----------------7--8p7--7---5-------7--------7-6/11-14-----|
G|----3-------3--3-------------7--7-----------6-----------7------------------|
D|--------------------------7---------------7-----------7--------------------|
A|---------------------------------------------------------------------------|
E|---------------------------------------------------------------------------|     

e|----------------------------------------------------7--9-------------------|
B|----7--7------7---------7--------------7----9--7s9-------9--9----7----5----|
G|---------------------------------------8-8------------------9-9--8-8--6-6--|
D|---------7-------7---------7/9---7-----------------------------------------|
A|---------------------------------------------------------------------------|
E|---------------------------------------------------------------------------|

e|---------------------------------------------------------------------------|
B|----5---------7--9-----10--12------13----10--5----7-5----7-----------7-----|
G|------6---6----------9----------12----------------------7--7---------7-----|
D|--------7----------9---------12------------------------7-----7-------------|
A|---------------------------------------------------------------------------|
E|---------------------------------------------------------------------------|

            
Submit corrections


        See The Sun lessons Hard to play? Try these video lessons and learn fast See The Sun lessons
        
↑ Back to top | Tablatures and chords for acoustic guitar and electric guitar, ukulele, drums are parodies/interpretations of the original songs. You may use it for private study, scholarship, research or language learning purposes only