» » »

The Kooks - Naive Tabs

Artists:  A B C D E F G H I J K L M N O P Q R S T U V W X Y Z # 

Naive Tabs

(ver. 3) Click to play this song!
The Kooks
 Rating:
4/5 (4 votes)

 Naive lessons Tabs too difficult? Try these video lessons and learn fast
 
                hey here is a great song from a great band! hope you like it! here it goes..........

INTRO:

e----------------------------------------------------------------------------|
b----------------------------------------------------------------------------|
g-----6-x-6-6-x-4h6p4------9-x--6-6-x-4h6p-----6-x-6--4-6-6----7-x-9-x-9-xxx-|
d-----6-x-6-6-x-4h6p4------9-x--6-6-x-4h6p-----4-x-4--4-4-4--9-9-x-7-x-7-xxx-|
a--6-------------------5/7-----------------------------------9---------------|
e--4--------------------------------------4/6--------------------------------|


VERSE: (x 3)

e---------------------------------------------------------------------------|
b---------------------------------------------------------------------------|
g----6-x-6-6-x-4h6p4-----9-x-9-9-x-9------11-x-11-11-x-11----7-x-9-x-9-xxx--|
d----6-x-6-6-x-4h6p4-----9-x-9-9-x-9------11-x-11-11-x-11--9-9-x-7-x-7-xxx--|
a--6-----------------0/7--------------7/9------------------9----------------|
e--4------------------------------------------------------------------------|


CHORUS:

e------7---6---------7---6---------4---6---------7---6---|
b--9---7---7-----9---7---7-----9---4---7-----9---7---7---|
g--9---8---6-----9---8---6-----9---4---6-----9---8---6---|
d--9---9---8-----9---9---8-----9---6---8-----9---9---8---|
a--7---9---6-----7---9---6-----7---6---6-----7---9---6---|
e------7-------------7-------------4-------------7-------|

BIT JUST BEFORE VERSE 2:

e---------------------------
b--1212121212121212121212---
g--1111111111111111111111---
d---------------------------
a---------------------------
e---------------------------

VERSE:
CHORUS: (this time strum chords)

BRIDGE:

e------------------------------------------|
b------------------------------------------|
g--444/6666/8888/-9-9-9-9/16161616161616---|
d--666/8888/9999/11111111/16161616161616---|
a------------------------------------------|
e------------------------------------------|


e--------------------------------------------------|
b--------------------------------------------------|
g--444/6666/8888/-9-9-9-9/11111111111111-9-9-9-----|
d--666/8888/9999/11111111/11111111111111111111-----|
a--------------------------------------------------|
e--------------------------------------------------|


VERSE:
CHORUS: (strumming)


OUTRO: (strumming)

e--7-----6-----4-----7---|
b--9-----7-----4-----7---|
g--9-----6-----4-----8---|
d--9-----8-----6-----9---|
a--7-----6-----6-----9---|
e--------------4-----7---|

END ON:

e--4---|
b--4---|
g--4---|
d--6---|
a--6---|
e--4---|


thats it hope you enjoy! ill welcome any corrections or comments (even the bad ones) coz 
            
Submit corrections


        Naive lessons Hard to play? Try these video lessons and learn fast Naive lessons
        
↑ Back to top | Tablatures and chords for acoustic guitar and electric guitar, ukulele, drums are parodies/interpretations of the original songs. You may use it for private study, scholarship, research or language learning purposes only