» » »

The Kooks - Kids Tabs

Artists:  A B C D E F G H I J K L M N O P Q R S T U V W X Y Z # 

Kids Tabs

(ver. 3) Click to play this song!
The Kooks
 Rating:
4/5 (4 votes)

 Kids lessons Tabs too difficult? Try these video lessons and learn fast
 
                Here you have the tabs and chords of the song, :) It's great. The intro's missing that 
amazing thing Hugh does with his finger. I can notice what he does on the other parts, 
that last thing... Gee, I'm not god. Anyway, here it is.

During the whole song, the chords are
F#m: 222442
D: 232000 or 232xxx -it's the same thing.
A: 022200
A/G#: 022204 or 022004 -also, the same thing. Perhaps the first one's more complicated.


Intro:
e----------------------------------------------------------------------------|
b----------------------------------------------------------------------------|
g-----------------------------14-16-18-18-16-19-18-16-13-14-13-11-9-9-11-----|>
d-7-9-11-11-14-16-18-16-14-11------------------------------------------------|
a----------------------------------------------------------------------------|
e----------------------------------------------------------------------------|

e------------5---5--5---|---------------------------------------------------|
b-------------5---5--5--|---Second guitar plays-----------------------------|
g>>-13-11-9-----6--6----|----------A/G#-------------------------------------|
d-----------------------|---Or some thing that Hugh plays, so---------------|
a-----------------------|-----weird, difficult and awesome.-----------------|
e-----------------------|---------------------------------------------------|

F#m        D
You were a child
                 A            A/G#
Crawling on your knees toward him
F#m            D
Making mama so proud
A                     A/G#          F#m    D
But your voice is too loud
                 A     A/G#           (and so..)
We like to watch you laughing

Picking insects off of plants

Don't think of consequences


(F#m   D   A   A/G#)

Control yourself
Take only what you need from them
A family of trees wanting to be haunted
Control yourself
Take only what you need from them


(F#m   D   A   A/G#)

The water is warm
But it’s sending me shivers
A baby is born
Crying out for attention
Memories fade
Like looking through a fogged mirror
Decisions too
Decisions are made
Decisions are made and not bought
Would've hurt at all


(F#m   D   A   A/G#)

Control yourself.
Take only what you need from them,
A family of trees wanting to be haunted.
Control yourself,
Take only what you need from them.

e---------------------------------------------------------------------------|
b-----------------12-14-12-10-10-14-15-14-12-9-10-12-9-10-14-15-14-17-17----|
g-------11(x3)-9-9----------------------------------------------------------|
d-7-9-7---------------------------------------------------------------------|
a---------------------------------------------------------------------------|
e---------------------------------------------------------------------------|

And the last part I don't know how it goes.
Then again to the chorus.

(F#m   D   A   A/G#)

Control yourself.
Take only what you need from them,
A family of trees wanting to be haunted.
Control yourself,
Take only what you need from them.

Goes TWICE.

That's it, hope you like it :)
            
Submit corrections


        Kids lessons Hard to play? Try these video lessons and learn fast Kids lessons
        
↑ Back to top | Tablatures and chords for acoustic guitar and electric guitar, ukulele, drums are parodies/interpretations of the original songs. You may use it for private study, scholarship, research or language learning purposes only