Home » T » The Kooks »

The Kooks - Eddie's Gun Tabs

Artists:  A B C D E F G H I J K L M N O P Q R S T U V W X Y Z # 

Eddie's Gun Tabs

(ver. 2) Click to play this song!
The Kooks

For the rest of the song, "Eddies Gun (ver 3) Chords" by Callum are pretty good, except 
marked "F#" chords should be "F#m."  Have fun!

Gtr I (E A D G B E) - 'Untitled'

  Q=160
  Gtr I
  Q.   H    E   E +Q.   E E E E   Q.   E +H       H      E  Q   Q.
|-------------|-----------------|---------------|--------------------|
|-7----5----5-|-5-(5)-----------|---------------|------/14-14--14----|
|-------------|---------7-6-4-6-|---------------|--------------------|
|-------------|-----------------|-7----4-(4)----|--------------------|
|-------------|-----------------|---------------|--------------------|
|-------------|-----------------|---------------|--------------------|


   Q   +Q     E Q.     +Q   H    Q    +E  Q.    E  Q.      +Q   H.
|--------------------|-----------2--|-(2)-0-----9-12----|-(12)--------|
|-12--(12)--/10-9----|-(9)-------3--|-(3)-2----10-12----|-(12)--------|
|--------------------|--------------|-------------------|-------------|
|--------------------|--------------|-------------------|-------------|
|--------------------|--------------|-------------------|-------------|
|--------------------|--------------|-------------------|-------------|
            
Submit corrections

↑ Back to top | Tablatures and chords for acoustic guitar and electric guitar, ukulele, drums are parodies/interpretations of the original songs. You may use it for private study, scholarship, research or language learning purposes only