Home » T » The Knife »

The Knife - N.Y. Hotel Tabs

Artists:  A B C D E F G H I J K L M N O P Q R S T U V W X Y Z # 

N.Y. Hotel Tabs

(Version #1)
The Knife
NY Hotel- By The Knife

tuned:standard tuned:eBGDAE

e|---8---8---8---8---8---8---8---8-------------|
B|-8---8---8---8---8---8---8---8---------------|
G|---------------------------------------------|
D|---------------------------------------------|
A|---------------------------------------------|
E|---------------------------------------------| 

e|---8---8---8---8---8---8---8---8-------------|
B|---------------------------------------------|
G|-6---6---6---6---6---6---6---6---------------|
D|---------------------------------------------|
A|---------------------------------------------|
E|---------------------------------------------| 

e|---8---8---8---8---8---8---8---8-------------|
B|---------------------------------------------|
G|-8---8---8---8---8---8---8---8---------------|
D|---------------------------------------------|
A|---------------------------------------------|
E|---------------------------------------------| 

e|---8---8---8---8---8---8---8---8-------------|
B|---------------------------------------------|
G|---------------------------------------------|
D|-6---6---6---6---8---8---8---8---------------|
A|---------------------------------------------|
E|---------------------------------------------| 

The you play it again, until the last part, where you do like this instead:

e|---8---8---8---8---8---8---8---8-------------|
B|---------------------------------------------|
G|---------------------------------------------|
D|-8---8---8---8---6---6---6---6---------------|
A|---------------------------------------------|
E|---------------------------------------------| 



And so you play over and over, the whole song, but every time you change the last part as it says above.
            
Submit corrections

↑ Back to top | Tablatures and chords for acoustic guitar and electric guitar, ukulele, drums are parodies/interpretations of the original songs. You may use it for private study, scholarship, research or language learning purposes only