Home » T » The King Blues »

The King Blues - Under The Fog Bass

Artists:  A B C D E F G H I J K L M N O P Q R S T U V W X Y Z # 

Under The Fog Bass

(ver. 1) Click to play this song!
The King Blues
King Blues
Under the fog

Intro
G|---------------|---------------|---------------|------------------------------|
D|-5~------------|-/10----9----7-|-5~------------|-/10----9----7777777777777777-|
A|------5~----7~-|---------------|------5~----7~-|------------------------------|
E|---------------|---------------|---------------|------------------------------|

Verse 1
G|-----------------------------------------------------|
D|--------------------------10-10-10-9-9-910p9-77779p7-|
A|-10-10-9-7-55555777777777----------------------------|
E|-----------------------------------------------------|

Chorus     x4 |                                 x2 |
G|------------|------------------------------------|
D|------------|------------------------------------|
A|-5555-------|-1010101010\555555/1010101010101010-|
E|-----333333-|------------------------------------|

Verse 2
G|-----------------------------------------------------|
D|--------------------------10-10-10-9-9-910p9-77779p7-|
A|-10-10-9-7-55555777777777----------------------------|
E|-----------------------------------------------------|

Chorus     x4 |
G|------------|
D|------------|
A|-5555-------|
E|-----333333-|

Outro                       x2 |
G|-----------------R------------R--|
D|-----------------E------------E--|
A|-----------------S------------S--|
E|-101010/3-33/10--T--101010/3--T--|

No one has bothered to tab king blues yet an they rock!! so im gonna do it. lol

I'll add you fer shure and we can bum over the interweb lolz
            
Submit corrections

↑ Back to top | Tablatures and chords for acoustic guitar and electric guitar, ukulele, drums are parodies/interpretations of the original songs. You may use it for private study, scholarship, research or language learning purposes only