Home » T » The King Blues »

The King Blues - The Streets Are Ours Bass

Artists:  A B C D E F G H I J K L M N O P Q R S T U V W X Y Z # 

The Streets Are Ours Bass

(ver. 1) Click to play this song!
The King Blues
Artist - The King Blues
Album - Save The World, Get The Girl
Track - The Streets Are Ours
Tuning - Standard (EADG)

Intro
G|---------------------------------|---------------------------------|
D|---------------------------------|---------------------------------|
A|---------------------------------|---------------------------------|
E|---------------------------------|---------------------------------| x2

Riff 1
G|---------------------------------|---------------------------------|
D|-2---2---5---4---2---2---5---4---|-2---2---5---4-------------------|
A|---------------------------------|-----------------5---5---2---5---|
E|---------------------------------|---------------------------------| x4

Riff 2
G|---------------------------------|---------------------------------|
D|---------------------------------|---------------------------------|
A|-0---0---0---0---0---0---0---0---|-0-----------------------3-------|
E|---------------------------------|---------0-------3---------------|

G|---------------------------------|---------------------------------|
D|---------------------------------|---------------------------------|
A|-2---2---2---2---2---2---2---2---|-2---2---2---2---2---2---2---2---|
E|---------------------------------|---------------------------------|

G|---------------------------------|---------------------------------|
D|---------------------------------|---------------------------------|
A|-0---0---0---0---0---0---0---0---|-0-----------------------3-------|
E|---------------------------------|---------0-------3---------------|

G|---------------------------------|---------------------------------|
D|---------------------------------|---------1-------4-------2-------|
A|-2---2---2---2---2---2---2---2---|-2-------------------------------|
E|---------------------------------|---------------------------------|

Riff 1
G|---------------------------------|---------------------------------|
D|-2---2---5---4---2---2---5---4---|-2---2---5---4-------------------|
A|---------------------------------|-----------------5---5---2---5---|
E|---------------------------------|---------------------------------| x4

Riff 2
G|---------------------------------|---------------------------------|
D|---------------------------------|---------------------------------|
A|-0---0---0---0---0---0---0---0---|-0-----------------------3-------|
E|---------------------------------|---------0-------3---------------|

G|---------------------------------|---------------------------------|
D|---------------------------------|---------------------------------|
A|-2---2---2---2---2---2---2---2---|-2---2---2---2---2---2---2---2---|
E|---------------------------------|---------------------------------|

G|---------------------------------|---------------------------------|
D|---------------------------------|---------------------------------|
A|-0---0---0---0---0---0---0---0---|-0-----------------------3-------|
E|---------------------------------|---------0-------3---------------|

G|---------------------------------|---------------------------------|
D|---------------------------------|---------1-------4-------2-------|
A|-2---2---2---2---2---2---2---2---|-2-------------------------------|
E|---------------------------------|---------------------------------|

Riff 3
G|---------------------------------|---------------------------------|
D|-2-------------------------------|---------------------------------|
A|---------------------------------|-------------------------2-------|
E|---------------------------------|---------------------------------| x4

Riff 1
G|---------------------------------|---------------------------------|
D|-2---2---5---4---2---2---5---4---|-2---2---5---4-------------------|
A|---------------------------------|-----------------5---5---2---5---|
E|---------------------------------|---------------------------------| x4

Riff 2
G|---------------------------------|---------------------------------|
D|---------------------------------|---------------------------------|
A|-0---0---0---0---0---0---0---0---|-0-----------------------3-------|
E|---------------------------------|---------0-------3---------------|

G|---------------------------------|---------------------------------|
D|---------------------------------|---------------------------------|
A|-2---2---2---2---2---2---2---2---|-2---2---2---2---2---2---2---2---|
E|---------------------------------|---------------------------------|

G|---------------------------------|---------------------------------|
D|---------------------------------|---------------------------------|
A|-0---0---0---0---0---0---0---0---|-0-----------------------3-------|
E|---------------------------------|---------0-------3---------------|

G|---------------------------------|---------------------------------|
D|---------------------------------|---------1-------4-------2-------|
A|-2---2---2---2---2---2---2---2---|-2-------------------------------|
E|---------------------------------|---------------------------------|

Riff 1
G|---------------------------------|---------------------------------|
D|-2---2---5---4---2---2---5---4---|-2---2---5---4-------------------|
A|---------------------------------|-----------------5---5---2---5---|
E|---------------------------------|---------------------------------| x4

Riff 2
G|---------------------------------|---------------------------------|
D|---------------------------------|---------------------------------|
A|-0---0---0---0---0---0---0---0---|-0-----------------------3-------|
E|---------------------------------|---------0-------3---------------|

G|---------------------------------|---------------------------------|
D|---------------------------------|---------------------------------|
A|-2---2---2---2---2---2---2---2---|-2---2---2---2---2---2---2---2---|
E|---------------------------------|---------------------------------|

G|---------------------------------|---------------------------------|
D|---------------------------------|---------------------------------|
A|-0---0---0---0---0---0---0---0---|-0-----------------------3-------|
E|---------------------------------|---------0-------3---------------|

G|---------------------------------|---------------------------------|
D|---------------------------------|---------1-------4-------2-------|
A|-2---2---2---2---2---2---2---2---|-2-------------------------------|
E|---------------------------------|---------------------------------|

During Drum Solo
G|---------------------------------|---------------------------------|
D|---------------------------------|---------------------------------|
A|---------------------------------|---------------------------------|
E|---------------------------------|---------------------------------| x11

Riff 4
G|---------------------------------|---------------------------------|
D|-2-------2-------2-------2-------|-2-------2-------2---------------|
A|---------------------------------|-------------------------0---2---|
E|---------------------------------|---------------------0-----------| x4

Riff 2
G|---------------------------------|---------------------------------|
D|---------------------------------|---------------------------------|
A|-0---0---0---0---0---0---0---0---|-0-----------------------3-------|
E|---------------------------------|---------0-------3---------------|

G|---------------------------------|---------------------------------|
D|---------------------------------|---------------------------------|
A|-2---2---2---2---2---2---2---2---|-2---2---2---2---2---2---2---2---|
E|---------------------------------|---------------------------------|

G|---------------------------------|---------------------------------|
D|---------------------------------|---------------------------------|
A|-0---0---0---0---0---0---0---0---|-0-----------------------3-------|
E|---------------------------------|---------0-------3---------------|

G|---------------------------------|---------------------------------|
D|---------------------------------|---------1-------4-------2-------|
A|-2---2---2---2---2---2---2---2---|-2-------------------------------|
E|---------------------------------|---------------------------------|

Riff 5
G|---------------------------------|---------------------------------|
D|-2-------2-------2-------2-------|-2-------2-------2---------------|
A|---------------------------------|-------------------------2-------|
E|---------------------------------|---------------------------------| x4

G|---------------------------------|---------------------------------|
D|---------------------------------|-2-------------------------------|
A|---------------------------------|---------------------------------|
E|---------------------------------|---------------------------------|
            
Submit corrections

↑ Back to top | Tablatures and chords for acoustic guitar and electric guitar, ukulele, drums are parodies/interpretations of the original songs. You may use it for private study, scholarship, research or language learning purposes only