Home » T » The King Blues »

The King Blues - Lets Hang The Landlord Bass

Artists:  A B C D E F G H I J K L M N O P Q R S T U V W X Y Z # 

Lets Hang The Landlord Bass

(ver. 1) Click to play this song!
The King Blues
hey i couldnt find this tab anywhere on the internet so i thought i would put it on this
my first tab and ive only been playing a year

standard tuning:

intro:
violin first then:

g------------------------------|
d------------------------------|
a--------5-5-5-5---------------|
e-3-3-3-3-------5-5-5-5-7-7-7-7|

g------------------------------|
d------------------------------|
a-------5-5-5-5----------------|
e3-3-3-3-------5555555555555555|


verse:

g----------------|
d----------------|
a 5-5-4-2-2-4-5-5|x2
e----------------|

then
g------------------|
d------------------|
a5-5-4-2-2-2---5---|
e-----------3-3-55-|

chorus:

g-------------------------------------------------------------|
d-------------------------------------------------------------|
a--------5-5-5-5-----------------------5-5-5-5----------------|
e-3-3-3-3-------5-5-5-5-7-7-7-7-3-3-3-3-------5555555555555555|


after ukelele:

g--------------------------------------------------------------------------|
d--------------------------------------------------------------------------|
a----------------------5-5-5-5-----------------------5-5-5-5---------------|
e3333333355555555-3-3-3-------5-5-5-5-7-7-7-7-3-3-3-3-------555555555555555|
till end

enjoy
....end of transmission.....
            
Submit corrections

↑ Back to top | Tablatures and chords for acoustic guitar and electric guitar, ukulele, drums are parodies/interpretations of the original songs. You may use it for private study, scholarship, research or language learning purposes only