Home » T » The King Blues »

The King Blues - Blood On My Hands Bass

Artists:  A B C D E F G H I J K L M N O P Q R S T U V W X Y Z # 

Blood On My Hands Bass

(ver. 1) Click to play this song!
The King Blues
Intro riff on the album:
G|-----------------------------------------------------------------|
D|-----------------------------------------------------------------|
A|---------------------------------5-5-5-5-5-5-7-5-----------5-7-5-|x8
E|-7-7-5-7-7-5-7-7-7-7-5-7-7-5-7-7-----------------5-5-5-5-5-------|

G|-------------------------------------|
D|-------------------------------------|
A|-----------------5-5-5-5-------------|x2
E|-5-5-5-5---------------------5-5-5-5-|

First Riff x2
Second Riff x1 ending on an octave E to lead in to...

Intro/Verse
G|--------------------------------------------------------------|
D|*------------------------------------------------------------*|
A|*-----------5-5------------5-5------------5-5------------5-5-*|
E|-7-77-5-7-------7-77-5-7-------7-77-5-7-------7-77-5-7--------|

G|------------------------------|
D|-----------5-5------------5-5-|
A|-7-77-5-7-------7-77-5-7------|
E|------------------------------|

G|------------------------------|
D|------------------------------|
A|-----------5-5------------5-5-|
E|-7-77-5-7-------7-77-5-7------|

Chorus
G|--------------------------------------------------------------------|
D|--------------------------------------------------------------------|
A|-----------------5-5-5-5-------------------------5-5-5-5---------7*-|
E|-5-5-5-5-------------------5-5-5-5---7-7-7-7---------------5-5-5----|

Bridge [WE DONT WANT NO ENDLESS WAR]
G|--------------------------------------------|
D|--------------------------------9----9-9----|
A|----9-----9-9-----7-----7-7--7-7--7-7-------|x2
E|-7-7---7-7-----5-5---5-5-----------------7*-|

Intro/Verse 
Chorus
Bridge
Intro/Verse
Chorus

G|---------------------|
D|---------------------|
A|---------------------|
E|-7*------5*------0*--|

G|---------------------------------|
D|---------------------9----9-9----|
A|-----------------7-7---7------7*-|
E|-7*------5*----------------------|

Bridge
Outro (Verse ending on B)
            
Submit corrections

↑ Back to top | Tablatures and chords for acoustic guitar and electric guitar, ukulele, drums are parodies/interpretations of the original songs. You may use it for private study, scholarship, research or language learning purposes only