Home » T » The Kills »

The Kills - Rodeo Town Ukulele

Artists:  A B C D E F G H I J K L M N O P Q R S T U V W X Y Z # 

Rodeo Town Ukulele

(ver. 1) Click to play this song!
The Kills
Tuning: Standard


Verse:

Db           Eb    Db                Gb
   If I'm so evil, why are you satisfied?
Db           Eb    B       Db       Gb
   If I'm so evil, why are you satisfied?
Db                          Eb
   I had a dream about your ghost
            Db                Gb
   You were breathing down my neck
Db                      Eb
   Idiot style in the shower
   B             Db             Gb
   Flicking your ashes down the drain

Chorus:

Bb                    B        Db             Gb
  You were telling me how this ain't no rodeo town
Bb                    B       Db             Gb
   I Caught the gun but you made me set it down
Bb                    B        Db             Gb
  You were telling me how this ain't no rodeo town
Bb                    B        Db             Gb
   I Caught the gun but you made me set it down

Verse:

Db           Eb    Db               Gb
   If I'm so evil, why are you satisfied?
Db             Eb    B       Db       Gb
   If I'm so evil, why are you satisfied?
Db                   Eb              Db             Gb
   When you left you said "I'm gonna keep an eye on you."
Db                    Eb                 B     Db     Gb
   Well, I don't mind if you do, but you can't keep quiet

Chorus:

Bb                    B        Db             Gb
  You were telling me how this ain't no rodeo town
Bb                    B        Db             Gb
   I Caught the gun but you made me set it down
Bb                    B        Db             Gb
  You were telling me how this ain't no rodeo town
Bb                    B        Db             Gb
   I Caught the gun but you made me set it down

Break Riff

E|-----------------------------------------------------------|
B|-----------------------------------------------------------|
G|---------------6b8r6-----------------------4b6r4-----------|  x4
D|---8--8p6-------------9-------6--6p4--------------7-4------|
A|---------9p6--------------7----------7p4-------------------|
E|-----------------------------------------------------------|

Chorus:

Bb                    B        Db             Gb
  You were telling me how this ain't no rodeo town
Bb                    B        Db             Gb
   I Caught the gun but you made me set it down
Bb                    B        Db             Gb
  You were telling me how this ain't no rodeo town
Bb                    B        Db             Gb
   I Caught the gun but you made me set it down


Break Riff

E|-----------------------------------------------------------|
B|-----------------------------------------------------------|
G|---------------6b8r6-----------------------4b6r4-----------|  x4
D|---8--8p6-------------9-------6--6p4--------------7-4------|
A|---------9p6--------------7----------7p4-------------------|
E|-----------------------------------------------------------|
            
Submit corrections

↑ Back to top | Tablatures and chords for acoustic guitar and electric guitar, ukulele, drums are parodies/interpretations of the original songs. You may use it for private study, scholarship, research or language learning purposes only