» » »

The Kills - Let It Drop Tabs

Artists:  A B C D E F G H I J K L M N O P Q R S T U V W X Y Z # 

Let It Drop Tabs

(ver. 1) Click to play this song!
The Kills
 Rating:
4.3/5 (10 votes)

 Let It Drop  lessons Tabs too difficult? Try these video lessons and learn fast
 
                e|---------------------------------------------------------------------------|
B|-----------------------------------------------------------------7---------|
G|-9---9---9-6-------------------------------------------9---9---9-----------|
D|-------------6-7---7-9-6-9---9---9-7-------7---7-------------------6-7-----|
A|-------------------------------------9-9---------9-7-9---------------------|
E|---------------------------------------------------------------------------|

e|---------------------------------------------------------------------------|
B|---------------------------------------------------------------------------|
G|---------------------------------------------------------------------------|
D|-7-9-6-7---7---7-----7---7-7---7-------------------------------------------|
A|-----------------9-7-------------9-7---------------------------------------|
E|---------------------------------------------------------------------------|
            
Submit corrections


        Let It Drop  lessons Hard to play? Try these video lessons and learn fast Let It Drop  lessons
        
↑ Back to top | Tablatures and chords for acoustic guitar and electric guitar, ukulele, drums are parodies/interpretations of the original songs. You may use it for private study, scholarship, research or language learning purposes only