» » »

The Kills - Impossible Tracks Tabs

Artists:  A B C D E F G H I J K L M N O P Q R S T U V W X Y Z # 

Impossible Tracks Tabs

(ver. 1) Click to play this song!
The Kills
 Rating:
4.3/5 (24 votes)

 Impossible Tracks lessons Tabs too difficult? Try these video lessons and learn fast
 
                [Intro]

C#|-----------------|-----------------|
G#|-----------------|-----------------|
E |-----------------|-----------------|
B |-----------------|-----------------| (x2)
F#|-2---2---2-5-4-3-|-2---2-----5-4-3-|
B |-2---2---2-5-4-3-|-2---2-----5-4-3-|


[Verse]
I was carried away
C#|-----------------|-----------------|
G#|-----------------|-----------------|
E |-----------------|-----------------|
B |-----------------|-----------------| (x2)
F#|-2---2---2-5-4-3-|-2---2---2-2/5-0-|
B |-2---2---2-5-4-3-|-2---2---2-2/5-0-|

I was moving too fast on impossible tracks
C#|-----------------|-----------------|
G#|-----------------|-----------------|
E |-----------------|-----------------|
B |-----------------|-----------------|
F#|/5-5-5-5-5-5-5-5-|-5-5-5-5-5-5-5-4-|
B |/5-5-5-5-5-5-5-5-|-5-5-5-5-5-5-5-4-|

I was carried away
C#|-----------------|-----------------|
G#|-----------------|-----------------|
E |-----------------|-----------------|
B |-----------------|-----------------|
F#|-2---2---2-5-4-3-|-2---2-----5-4-3-|
B |-2---2---2-5-4-3-|-2---2-----5-4-3-|

I was easily led
C#|-----------------|-----------------|
G#|-----------------|-----------------|
E |-----------------|-----------------|
B |-----------------|-----------------|
F#|-2---2---2-5-4-3-|-2---2---2-2/5-0-|
B |-2---2---2-5-4-3-|-2---2---2-2/5-0-|

Because I'm easily led
C#|-----------------|-----------------|
G#|-----------------|-----------------|
E |-----------------|-----------------|
B |-----------------|-----------------|
F#|-2---2---2-5-4-3-|-2---2-----2-2-2-|
B |-2---2---2-5-4-3-|-2---2-----2-2-2-|

By the moon, by the tide, by whatever you like
C#|-----------------|-----------------|
G#|-----------------|-----------------|
E |-----------------|-----------------|
B |-----------------|-----------------|
F#|/5-5-5-5-5-5-5-5-|-5-5-5-5-5-5-5-4-|
B |/5-5-5-5-5-5-5-5-|-5-5-5-5-5-5-5-4-|

I'm just so easily led
C#|-----------------|-----------------|
G#|-----------------|-----------------|
E |-----------------|-----------------|
B |-----------------|-----------------|
F#|-2---2---2-5-4-3-|-2---2-----2-2-2-|
B |-2---2---2-5-4-3-|-2---2-----2-2-2-|


[Chorus]

C#|-----------------|-----------------|-----------------|-----------------|
G#|-----------------|-----------------|-----------------|-----------------|
E |-----------------|-----------------|-----------------|-----------------|
B |-----------------|-----------------|-----------------|-----------5-4-3-|
F#|-2-2-2-2-2-2-2-2-|-2-2-2-2-2-2-2-2-|/5-5-5-5-5-5-5-5-|-5-5-5-5-5-------|
B |-2-2-2-2-2-2-2-2-|-2-2-2-2-2-2-2-2-|/5-5-5-5-5-5-5-5-|-5-5-5-5-5-------|

C#|-----------------|-----------------|-----------------|-----------------|
G#|-----------------|-----------------|-----------------|-----------------|
E |-----------------|-----------------|-----------------|-----------------|
B |-2---------------|-----------------|-----------------|-----------5-4-3-|
F#|-2-2-2-2-2-2-2-2-|-2-2-2-2-2-2-2-2-|/5-5-5-5-5-5-5-5-|-5-5-5-5-5-------|
B |-2-2-2-2-2-2-2-2-|-2-2-2-2-2-2-2-2-|/5-5-5-5-5-5-5-5-|-5-5-5-5-5-------|


[Interlude]

C#|-----------------|-----------------|
G#|-----------------|-----------------|
E |-----------------|-----------------|
B |-----------------|-----------------| (x2)
F#|-2---2---2-5-4-3-|-2---2-----5-4-3-|
B |-2---2---2-5-4-3-|-2---2-----5-4-3-|


[Verse]
Oh you get what you give
C#|-----------------|-----------------|
G#|-----------------|-----------------|
E |-----------------|-----------------|
B |-----------------|-----------------| (x2)
F#|-2---2---2-5-4-3-|-2---2---2-2/5-0-|
B |-2---2---2-5-4-3-|-2---2---2-2/5-0-|

Well if a real live liar can set you on fire
C#|-----------------|-----------------|
G#|-----------------|-----------------|
E |-----------------|-----------------|
B |-----------------|-----------------|
F#|/5-5-5-5-5-5-5-5-|-5-5-5-5-5-5-5-4-|
B |/5-5-5-5-5-5-5-5-|-5-5-5-5-5-5-5-4-|

Then don't you settle for it
C#|-----------------|-----------------|
G#|-----------------|-----------------|
E |-----------------|-----------------|
B |-----------------|-----------------|
F#|-2---2---2-5-4-3-|-2---2-----5-4-3-|
B |-2---2---2-5-4-3-|-2---2-----5-4-3-|

Oh don't you take me all this way
C#|-----------------|-----------------|
G#|-----------------|-----------------|
E |-----------------|-----------------|
B |-----------------|-----------------|
F#|-2---2---2-5-4-3-|-2---2-----5-4-3-|
B |-2---2---2-5-4-3-|-2---2-----5-4-3-|

To bring me back to earth one day
C#|-----------------|-----------------|
G#|-----------------|-----------------|
E |-----------------|-----------------|
B |-----------------|-----------------|
F#|-2---2---2-5-4-3-|-2---2-----2-2-2-|
B |-2---2---2-5-4-3-|-2---2-----2-2-2-|

I'm gonna roll on back on impossible tracks
C#|-----------------|-----------------|
G#|-----------------|-----------------|
E |-----------------|-----------------|
B |-----------------|-----------------|
F#|/5-5-5-5-5-5-5-5-|-5-5-5-5-5-5-5-4-|
B |/5-5-5-5-5-5-5-5-|-5-5-5-5-5-5-5-4-|

And get carried away
C#|-----------------|-----------------|
G#|-----------------|-----------------|
E |-----------------|-----------------|
B |-----------------|-----------------|
F#|-2---2---2-5-4-3-|-2---2-----5-4-3-|
B |-2---2---2-5-4-3-|-2---2-----5-4-3-|


[Chorus]

C#|-----------------|-----------------|-----------------|-----------------|
G#|-----------------|-----------------|-----------------|-----------------|
E |-----------------|-----------------|-----------------|-----------------|
B |-----------------|-----------------|-----------------|-----------5-4-3-|
F#|-2-2-2-2-2-2-2-2-|-2-2-2-2-2-2-2-2-|/5-5-5-5-5-5-5-5-|-5-5-5-5-5-------|
B |-2-2-2-2-2-2-2-2-|-2-2-2-2-2-2-2-2-|/5-5-5-5-5-5-5-5-|-5-5-5-5-5-------|

C#|-----------------|-----------------|-----------------|-----------------|
G#|-----------------|-----------------|-----------------|-----------------|
E |-----------------|-----------------|-----------------|-----------------|
B |-2---------------|-----------------|-----------------|-----------5-4-3-| (x3)
F#|-2-2-2-2-2-2-2-2-|-2-2-2-2-2-2-2-2-|/5-5-5-5-5-5-5-5-|-5-5-5-5-5-------|
B |-2-2-2-2-2-2-2-2-|-2-2-2-2-2-2-2-2-|/5-5-5-5-5-5-5-5-|-5-5-5-5-5-------|


[Bridge]
(This part is played without a pick. He uses his thumb for the lower B string.
 Not 100% sure about this part but it fits.)
C#|-3---------------|-2---------------|-5---------------|-0---------------|
G#|-3---------------|-3---------------|-7---------------|-7---------------|
E |-----------------|-----------------|-----------------|-----------------|
B |-----------------|-----------------|-----------------|-----------------|
F#|-----------------|-----------------|-----------------|-----------------|
B |-2-2-2-2-2-2-2-2-|-0-0-0-0-0-0-0-0-|-5-5-5-5-5-5-5-5-|-7-7-7-7-7-7-7-7-|


[Chorus]

C#|-----------------|-----------------|-----------------|-----------------|
G#|-----------------|-----------------|-----------------|-----------------|
E |-----------------|-----------------|-----------------|-----------------|
B |-----------------|-----------------|-----------------|-----------------| (x4)
F#|-2-2-2-2-2-2-2-2-|-2-2-2-2-2-2-2-2-|/5-5-5-5-5-5-5-5-|-5-5-5-5-5-5-4-3-|
B |-2-2-2-2-2-2-2-2-|-2-2-2-2-2-2-2-2-|/5-5-5-5-5-5-5-5-|-5-5-5-5-5-5-4-3-|            
Submit corrections


        Impossible Tracks lessons Hard to play? Try these video lessons and learn fast Impossible Tracks lessons
        
↑ Back to top | Tablatures and chords for acoustic guitar and electric guitar, ukulele, drums are parodies/interpretations of the original songs. You may use it for private study, scholarship, research or language learning purposes only