» » »

The Kills - Hum For Your Buzz Tabs

Artists:  A B C D E F G H I J K L M N O P Q R S T U V W X Y Z # 

Hum For Your Buzz Tabs

(ver. 1) Click to play this song!
The Kills
 Rating:
4.3/5 (9 votes)

 Hum For Your Buzz  lessons Tabs too difficult? Try these video lessons and learn fast
 
                Intro:
C#|----------------------------------------------------------|
G#|-----------------------------------------------------9----|
 E|----------------------------------------------------8-----|
 B|-------------6-6-6-----------------------6-6-6------------|
F#|----6----6/8-------8-6---6--//--6----6/8-------8-6--------|
C#|---4--------------------4--//--4--------------------------|

Verse:
"Will you call on me..."
C#|----x-----------x-----------------------------------|
G#|----x-----------x-----------------------------------|
 E|----x-----------x-----------------------------------|
 B|----x------10-8-x------8-/10\8--6----8-8-6--8/10----|
F#|----x-----------x--8--------------------------------|
C#|----x-3-4-------x--6---------------4----------------|

"I'm lookin for..."
C#|-------------------------------------------------------------------------|
G#|-------------------------------------------------------------------------|
 E|-------------------------------------------------------------------------|
 B|-----------6-6-6-----------10-8-6-/8\6----8-/10\8-6-------8-8-6--8/10~---|
F#|----6--6/8-------8-6--------------------------------8--------------------|
C#|---4------------------4--------------------------------0-----------------|

Chorus:
"I am a believer..."
C#|-----------------------x------------------------------x---|
G#|-----------------------x------------------------------x---|
 E|-----------------------x--8~---8~---7-7-7-7-7-7-6~~---x---|
 B|-----------------------x------------------------------x---|
F#|---6--6----6-7-8-10----x------------------------------x---|
C#|---4--4----4-5-6-8-----x--7----7----6-6-6-6-6-6-5-----x---|

Verse:
"Row your boat a little bit faster now..."
C#|------x----------------x------------------------------------------------|
G#|------x----------------x------------------------------------------------|
 E|------x----------------x------------------x-----------------------------|
 B|------x-------6-10b----x--10-8-6-/8\6-----x-8-/10\8-6--x----8-8-6--10---|
F#|------x--6/8-----------x------------------x------------x----------------|
C#|---4--x-------------4--x---------------6-----------------4--------------|

"I am believe now that ain't..."
C#|------x--------------------x-----------------x-----------------------------|
G#|------x--------------------x-----------------x-----------------------------|
 E|------x--------------------x--8--8--8-\\-----x-----------------------------|
 B|------x------6-6-6-/10-----x--10-10-10\\-----x--8-/10\8-6-------8-8-6------|
F#|---6--x--6/8---------------x-----------------x------------8------------6---|
C#|---4--x-----------------4--x--------------6--x---------------4---------4---|

Chorus:
C#|--------------------------------------------------------------------------xx-xx---|
G#|--------------------------------------------------------------------------xx-xx---|
 E|---------------------------------8-8-8-8-8-8-8-8-8-8-8-8-7-7-7-7-7-7-6~~--xx-xx---|
 B|--------------------------------------------------------------------------xx-xx---|
F#|---6--6----6-7-8-10--10--10--10-------------------------------------------xx-xx---|
C#|---4--4----4-5-6-8---8---8---8---7-7-7-7-7-7-7-7-7-7-7-7-6-6-6-6-6-6-5----xx-xx---|

Bridge:
C#|------x-----------------------------------------------------------------------------------|
G#|------x-----------------------------------------------------------------------------------|
 E|------x-----------------------------------------------------------------------------------|
 B|------x------6-6-6-/10~---------8/10~-10-8-6-------------6-6-6-------------8/10-8-6-/8\6--|
F#|------x--6/8--------------3--3-----------------6--6--6/8-------8-6---3--3-----------------|
C#|---4--x-----------------0-1--1---------------0-4--4----------------0-1--1-----------------|

C#|-------------------------------------xx---|
G#|-------------------------------------xx---|
 E|-------------------------------------xx---|
 B|---------10-8-6----------8-8-\6------xx---|
F#|---8--8---------8----------------6~--xx---|
C#|---6--6------------4--0--0-0--0------xx---|

Verse:
"Go for broke..."
C#|---------------x-------------------x------------------------------|
G#|---------------x-------------------x------------------------------|
 E|---------------x-------------------x------------------------------|
 B|------------6--x----10-8-6-/8\6----x--8-/10\8-6-------8-8\6-10~---|
F#|---6----6/8----x-6-----------------x------------8-----------------|
C#|---4-----------x-4---------------6-x---------------4--------------|

"I'm a vision you looked..."
C#|------x-------------------x---x-xx-------------------------------------|
G#|------x-------------------x---x-xx-------------------------------------|
 E|------x-------------------x---x-xx-------------------------------------|
 B|------x------6-6-6-/10----x-x-x-xx----6-6-----6-6-6-6--6---8--8--10~---|
F#|---6--x--6/8--------------x-x-x-xx--------8--8-8------8-8--------------|
C#|---4--x-----------------4-x-x-x-xx--6----------------------------------|

Chorus:
C#|----------------------------------x-----------------------------------------x---|
G#|----------------------------------x-----------------------------------------x---|
 E|--------------------------8/10\8--x--8-8-8-8--8-8-8-8--7-7-7-7-7-7-6-6-6-6--x---|
 B|----------------------------------x-----------------------------------------x---|
F#|---6--6--6--6-7-8-10--10----------x-----------------------------------------x---|
C#|---4--4--4--4-5-6-8---8-----------x--7-7-7-7--7-7-7-7--6-6-6-6-6-6-5-5-5-5--x---|

C#|----------------------------------x---------------------------------------------|
G#|----------------------------------x---------------------------------------------|
 E|--------------------------8/10\8--x--8-8-8-8--8-8-8-8--7-7-7-7-7-7-6-6-6-6~~----|
 B|----------------------------------x---------------------------------------------|
F#|---6--6--6--6-7-8-10--10----------x---------------------------------------------|
C#|---4--4--4--4-5-6-8---8-----------x--7-7-7-7--7-7-7-7--6-6-6-6-6-6-5-5-5-5------|            
Submit corrections


        Hum For Your Buzz  lessons Hard to play? Try these video lessons and learn fast Hum For Your Buzz  lessons
        
↑ Back to top | Tablatures and chords for acoustic guitar and electric guitar, ukulele, drums are parodies/interpretations of the original songs. You may use it for private study, scholarship, research or language learning purposes only