» » »

The Kills - Hard Habit To Break Tabs

Artists:  A B C D E F G H I J K L M N O P Q R S T U V W X Y Z # 

Hard Habit To Break Tabs

(ver. 1) Click to play this song!
The Kills
 Rating:
4.3/5 (24 votes)

 Hard Habit To Break  lessons Tabs too difficult? Try these video lessons and learn fast
 
                [Intro]
tremelo pick, a couple of slight bends, continue through first verse
C#|------------------|
G#|-------13---------|
E |------------------|
B |------------------|
F#|------------------|
C#|------------------|

really the bass guitar part
C#|------------------------|
G#|------------------------|
E |------------------------|
B |------------------------|
F#|------------------------|
C#|----8----8----8----8----|


[Verse]
still the bass guitar part
C#|------------------------|
G#|------------------------|
E |------------------------| x4
B |------------------------|
F#|------------------------|
C#|----8----8----8----8----|


[Chorus]
C#|------------------|------------------|-----------------|-----------------|
G#|------------------|------------------|-----------------|-----------------|
E |--------------5-3-|------5-----------|-------------5-3-|------5----------|
B |------------5-----|----5-------------|-----------5-----|----5------------| 
F#|----3-------------|------------------|-3---------------|-----------------|
C#|------------------|------------------|-----------------|-----------------|
       PM      . . .      . .             .         . . .      . .

C#|------------------|------------------|-----------------|-----------------|
G#|------------------|------------------|-----------------|-----------------|
E |--------------5-3-|------5-----------|-------------5-3-|------5----------|
B |------------5-----|----5-------------|-----------5-----|----5------------| 
F#|----3-------------|------------------|-3---------------|-----------------|
C#|------------------|------------------|-----------------|-----------------|
       PM      . . .      . .             .         . . .      . .



[Post-Chorus]
C#|---------------------|-------------|------------------|----------------|
G#|-------------4---6---|-4/6---------|---------4----6---|----------------|
E |---------5-----------|-------------|-----5------------|---5------------|
B |---------------------|-------------|------------------|----------------|
F#|---------------------|-------------|-3----------------|----------------|
C#|----4----------------|-------------|------------------|----------------|

C#|-----------------|-------------------|----------------|----------------|
G#|------------4--6-|-8--6--4--6--8---8-|----------------|-8--------------|
E |---------5-------|-------------------|----------------|-8--------------|
B |-----------------|-------------------|----------------|----------------|
F#|-----------------|-------------------|----------------|----------------|
C#|----4------------|-------------------|----------------|-8--------------|



[Verse]
C#|-----------------|----------------|-----------------|-----------------|
G#|-------------6---|------------6---|-------------6---|-------------6---|
E |-------------5---|------------5---|-------------5---|-------------5---| x4
B |-----------------|----------------|-----------------|-----------------|
F#|----3------------|---3------------|----3------------|----3------------|
C#|-----------------|----------------|-----------------|-----------------|



[Chorus]
C#|------------------|------------------|-----------------|-----------------|
G#|------------------|------------------|-----------------|-----------------|
E |--------------5-3-|------5-----------|-------------5-3-|------5----------|
B |------------5-----|----5--------6----|-----------5-----|----5------------| 
F#|----3-------------|------------------|-3---------------|-----------------|
C#|------------------|------------------|-----------------|-----------------|
       PM      . . .      . .             .         . . .      . .

C#|------------------|------------------|-----------------|-----------------|
G#|------------------|------------------|-----------------|-----------------|
E |--------------5-3-|------5-----------|-------------5-3-|------5----------|
B |------------5-----|----5-------------|-----------5-----|----5------------| 
F#|----3-------------|------------------|-3---------------|-----------------|
C#|------------------|------------------|-----------------|-----------------|
       PM      . . .      . .             .         . . .      . .

C#|----------------|----------------|----------------|----------------|
G#|----------------|----------------|----------------|----------------|
E |----------------|----------------|----------------|----------------|
B |--6------6------|--6------6------|----------------|----------------|
F#|----------------|----------------|--3------3------|----------------|
C#|----------------|----------------|----------------|--1------1------|



[Interlude]
C#|-------------------------------------------|-----------------------------------------|
G#|-------------------------------------------|-----------------------------------------|
E |-------------------------------------------|-----------------------------------------| x3
B |-------------------------------------------|-----------------------------------------|
F#|-------------------------------------------|-----------------------------------------|
C#|---8-8-8-8-11-11-11-11-8-8-8-8-11-11-11-11-|-8-8-8-8-11-11-11-11-8-8-8-8-11-11-11-11-|

lots of machine gun delay stutters before and after this walkdown
C#|--------------------------------------------|--------------------------------|
G#|--------------------------------------------|--------------------------------|
E |--------------------------------------------|--------------------------------|
B |--------------------------------------------|--------------------------------|
F#|--------------------------------------------|--------------------------------|
C#|----11-11-11-11-10-10-10-10-8-8-8-8-6-6-6-6-|-8\-----------------------------|



[Chorus]
C#|----------|-------|----------|-------|----------|---------|----------|-------|
G#|-------6--|-4-----|-------6--|-4-----|-------6--|-4----6--|-------6--|-4-----|
E |-------5--|-5-----|-------5--|-5-----|-------5--|-5----5--|-------5--|-5-----|
B |----------|-------|----------|-------|----------|---------|----------|-------|
F#|--3-------|-------|--3-------|-------|--3-------|---------|--3-------|-------|
C#|----------|-------|----------|-------|----------|---------|----------|-------|



[Post-Chorus]
C#|--------------------|-------|------------------|-----------------|
G#|-------------4---6--|-4/6---|----------4----6--|--8--6--4--6--8--|
E |---------5----------|-------|------5-----------|-----------------|
B |--------------------|-------|------------------|-----------------|
F#|--------------------|-------|--3---------------|-----------------|
C#|----4---------------|-------|------------------|-----------------|

C#|--------------------|-------------------|---------------------|----------------|
G#|-------------4---6--|-8----6--4--6----8-|-8----6--4--6---4----|--------6----4--|
E |---------5----------|-------------------|-------------------5-|------5---------|
B |--------------------|-------------------|---------------------|----------------|
F#|--------------------|-------------------|---------------------|----------------|
C#|----4---------------|-------------------|---------------------|----------------|




C#|--------------------|-------|---------------------|----------------------|
G#|-------------4---6--|-4/6---|-------------4----6--|-8---6----4----6---8--|
E |---------5----------|-------|---------5-----------|----------------------|
B |--------------------|-------|---------------------|----------------------|
F#|--------------------|-------|-3-------------------|----------------------|
C#|----4---------------|-------|---------------------|----------------------|

C#|--------------------|------------------8-------8----|
G#|-------------4---6--|-8----6--4--6--8---------------|
E |---------5----------|-------------------------------|
B |--------------------|-------------------------------|
F#|--------------------|-------------------------------|
C#|----4---------------|-------------------------------| 




C#|--------------------|--------|---------------------|-------------|
G#|-------------4---6--|-4/6----|-------------4----6--|-------------|
E |---------5----------|--------|---------5-----------|--5----------|
B |--------------------|--------|---------------------|-------------|
F#|--------------------|--------|--3------------------|-------------|
C#|----4---------------|--------|---------------------|-------------|

C#|--------------------|-----------------|--------------------------|
G#|-------------4---6--|-8----6--4--6--8-|-8----6--4--6--4----------|
E |---------5----------|-----------------|------------------5-------|
B |--------------------|-----------------|--------------------------|
F#|--------------------|-----------------|--------------------------|
C#|----4---------------|-----------------|--------------------------|

C#|--------------------|--------|---------------------|-------------------|
G#|-------------4---6--|-4/6----|-------------4----6--|--8----6--4--6--8--|
E |---------5----------|--------|--------5------------|-------------------|
B |--------------------|--------|---------------------|-------------------|
F#|--------------------|--------|-3-------------------|-------------------|
C#|----4---------------|--------|---------------------|-------------------|

C#|--------------------|-----------------|--------------------------|
G#|-------------4---6--|-8----6--4--6--8-|-8----6--4--6--4----------|
E |---------5----------|-----------------|------------------5-------|
B |--------------------|-----------------|--------------------------|
F#|--------------------|-----------------|--------------------------|
C#|----4---------------|-----------------|--------------------------|



[Outro]
C#|---------------------|---------------------|
G#|----------4----------|-8----6--4--6--4-----|
E |----5--5-----5--5----|------------------5--|
B |---------------------|---------------------|
F#|---------------------|---------------------|
C#|---------------------|---------------------|
       
C#|------------------|------------------|-----------------|-----------------|
G#|------------------|------------------|-----------------|-----------------|
E |--------------5-3-|------5-----------|-------------5-3-|------5----------|
B |------------5-----|----5-------------|-----------5-----|----5------------| 
F#|----3-------------|------------------|-3---------------|-----------------|
C#|------------------|------------------|-----------------|-----------------|
       PM      . . .      . .             .         . . .      . .            
Submit corrections


        Hard Habit To Break  lessons Hard to play? Try these video lessons and learn fast Hard Habit To Break  lessons
        
↑ Back to top | Tablatures and chords for acoustic guitar and electric guitar, ukulele, drums are parodies/interpretations of the original songs. You may use it for private study, scholarship, research or language learning purposes only