» » »

The Killers - Smile Like You Mean It Chords

Artists:  A B C D E F G H I J K L M N O P Q R S T U V W X Y Z # 

Smile Like You Mean It Chords

(ver. 4) Click to play this song!
The Killers
 Rating:
4.4/5 (11 votes)

 Smile Like You Mean It lessons Tabs too difficult? Try these video lessons and learn fast
 
                [Intro]

Synth lead over chords as follows:

  1 2 3 4|1 2 3 4|1 2 3 4|1 2 3 4|1 2 3 4|1 2 3 4|1 2 3 4|1 2 3 4|1
  D#m             G#m             B               C#
e ------------7-6-----7-6---4-----------------7-6-----7-6-----7-6--
B ----------4-------4---------------7-------4-------4-------4------
G -----------------------------------------------------------------
D -----------------------------------------------------------------
A -----------------------------------------------------------------
E -----------------------------------------------------------------

All in:

  1 2 3 4|1 2 3 4|1 2 3 4|1 2 3 4|1 2 3 4|1 2 3 4|1 2 3 4|1 2 3 4
  F#      G#m     D#m             F#      G#m     D#m
e ------------7-6-----7-6---4-----------------7-6-----7-6--------
B 7---------4-------4-------------7---------4-------4-------7----
G ---------------------------------------------------------------
D ---------------------------------------------------------------
A ---------------------------------------------------------------
E ---------------------------------------------------------------


[Verse]

F#             G#m7    D#m
Save some face, you know you've only got one
F#               G#m7            D#m
Change your ways while you're young
F#  G#m             D#m
Boy, one day you'll be a man
F#      G#m7              D#m
Oh girl, he'll help you understand


[Chorus]

F#/A#            B        F#     C#/F
Smile like you mean it
F#/A#            B        F#     C#/F
Smile like you mean it


[Verse]

F#           G#m7   D#m
Looking back at sunsets on the Eastside
F#            G#m7         B
We lost track of the time
F#     G#m                 D#m
Dreams aren't what they used to be
F#          G#m           D#m
Some things sat by so carelessly


[Chorus]

F#/A#            B        F#    C#/F
Smile like you mean it
F#/A#            B        F#    C#/F
Smile like you mean it


[Solo]

C#      D#m      B      X2


[Bridge]

    G#m
And someone is calling my name
            D#m
From the back of the restaurant
     G#m
And someone is playing a game
            D#m
In the house that I grew up in
      G#m
And someone will drive her around
             A#m
Down the same streets that I did
           B                   C#
On the same streets that I did


[Chorus]

F#/A#            B        F#    C#/F
Smile like you mean it
F#/A#            B        F#    C#/F
Smile like you mean it
F#/A#            B        F#    C#/F
Smile like you mean it
F#/A#            B        F#    C#/F
Smile like you mean it


[Outro]

F#     G#m     D#m
            Oh No, Oh no no no
F#     G#m     D#m
            Oh No, Oh no no no


[Ending]

F# F# F#       Am Am  G#m G#m G#m G#m     G#m G#m  D#m

D#m D#m D#m    D#m D#m D#m D#m D#m D#m    D#m D#m D#m

F# F# F#       Am Am  G#m G#m G#m G#m     G#m G#m  D#m

D#m
(hold)            
Submit corrections


        Smile Like You Mean It lessons Hard to play? Try these video lessons and learn fast Smile Like You Mean It lessons
        
↑ Back to top | Tablatures and chords for acoustic guitar and electric guitar, ukulele, drums are parodies/interpretations of the original songs. You may use it for private study, scholarship, research or language learning purposes only