» » »

The Killers - On Top Chords

Artists:  A B C D E F G H I J K L M N O P Q R S T U V W X Y Z # 

On Top Chords

(ver. 4) Click to play this song!
The Killers
 Rating:
4.3/5 (24 votes)

 On Top lessons Tabs too difficult? Try these video lessons and learn fast
 
                [Intro]

C#m    C#m    F#    F#    E    E    F#    G#m

C#m    C#m    B     F#
C#m    C#m    B     F#


[Verse]

C#m
   Remember Rio, and get down
B                     F#
   Like some other DJ, in some other town
C#m
   She's been trying to tell me to hold tight
B                      F#
   But I've been waiting this whole ni-ight
C#m
   But I've been down
B                   F#
Across a road or two
C#m
   But now I've found
B                     F#
The velvet sun, that shines on me and...


[Chorus]

G#m                  B
You, in the back, uh-huh, I can't crack,
      E              C#m
We're on top
            G#m                    B
It's just a shimmy and a shake, uh-huh
                    E
I can't fake, we're on top
      C#m
We're on top


[instrumental]

C#m    C#m    B     F#


[Verse]

C#m
   The day is breaking, we're still here
B                      F#
   Your body's shaking, and it's clear
C#m
   You really need it, so let go
B                      F#
   And let me feed it, but you kno-ow
C#m
   That I've been down
B                   F#
Across a road or two
C#m
   But now I've found
B                      F#
The velvet sun, that shines on me and...

|| Chorus:

G#m                  B
You, in the back, uh-huh, I can't crack,
      E              C#m
We're on top
G#m                              B
It's just a shimmy and a shake, uh-huh
                      E
I can't fake, we're on top
      C#m
We're on top
            G#m                   B
We bring the bump to the grind, uh-huh
                        E           C#m
I don't mind, we're on top
            G#m                  B
It's just a shimmy and a shake, uh-huh
                     E
I can't fake, we're on top
      C#m
We're on top


[Bridge]

Dsus2             E            F#m      A
    And we don't mean to satisfy tonight
Dsus2             E            F#m      A
    So get your eyes off of my bride tonight
Dsus2             E            F#m      A
    Cause I don't need to satisfy tonight
             Bm               E
It's like a cigarette in the mouth, or a
Bm                  E
   Handshake in the doorway
  Bm              E                 F#m   F#m
I look at you and smile because I'm fine


[Instrumental]

C#m    C#m    B     F#
C#m    C#m    B     F#


[Solo]

   G#m                     B                       E                       C#m
e|-14-14-11----14-14-11----14-14-11----14-14-11----12-12-11----12-12-11----12-12-11----12-12-11-----|
B|----------12----------12----------12----------12----------12----------12----------12----------12--|
G|--------------------------------------------------------------------------------------------------|
D|--------------------------------------------------------------------------------------------------|
A|--------------------------------------------------------------------------------------------------|
E|--------------------------------------------------------------------------------------------------|

   G#m                     B                       E                    C#m
e|-14-14-11----14-14-11----14-14-11----14-14-11----12-12-11----12-12-11--=---|
B|----------12----------12----------12----------12----------12----------14---|
G|---------------------------------------------------------------------------|
D|---------------------------------------------------------------------------|
A|---------------------------------------------------------------------------|
E|---------------------------------------------------------------------------|
                                                                        (hit and hold)


[Bridge]

Dsus2             E           F#m     A
    And we don't mean to satisfy tonight
Dsus2             E           F#m     A
    So get your eyes off of my bride tonight
Dsus2             E           F#m     A
    Cause I don't need to satisfy tonight
            Bm               E
It's like a cigarette in the mouth, or a
Bm                  E
   Handshake in the doorway
  Bm              E                 F#m
I look at you and smile because I'm fine (hit and hold)            
Submit corrections


        On Top lessons Hard to play? Try these video lessons and learn fast On Top lessons
        
↑ Back to top | Tablatures and chords for acoustic guitar and electric guitar, ukulele, drums are parodies/interpretations of the original songs. You may use it for private study, scholarship, research or language learning purposes only