» » »

The Killers - Andy Youre A Star Chords

Artists:  A B C D E F G H I J K L M N O P Q R S T U V W X Y Z # 

Andy Youre A Star Chords

(ver. 2) Click to play this song!
The Killers
 Rating:
4.3/5 (12 votes)

 Andy Youre A Star lessons Tabs too difficult? Try these video lessons and learn fast
 
                [Intro]

  C#m  C#m  C#m      C#m      G#sus G#    C#m   C#m C#m
e|------------------------------------------------------|
B|-7-7-5--4-7--7-5-4-7-7-5-4--7-7-4--5-7--7-5-4-7-7-5-4-|
G|-6-6-6--6-6--6-6-6-6-6-6-6--4-4-4--6-6--6-6-6-6-6-6-6-| x 2
D|-6-6-6--6-6--6-6-6-6-6-6-6--6-6-6--6-6--6-6-6-6-6-6-6-|
A|------------------------------------------------------|
E|------------------------------------------------------|


[Verse]

       C#m        C#m C#m      C#m     C#m C#m
On the field I remember you were incredible
         G#sus        G# G#    C#m     C#m C#m
Hey shut up, hey shut up, yeah
       C#m        C#m C#m      C#m     C#m C#m
On the field I remember you were incredible
         G#sus        G# G#    C#m     C#m C#m
Hey shut up, hey shut up, yeah


[Chorus]

         E             F#m        C#m
On the match with the boys, you think you're all alone
         E              F#m       C#m
With the pain that you drain from love
      E           A      F#m            B
In a car with a girl, promise me she's not your world
B
Cause Andy, you're a star


[Riff]

  C#m  C#m  C#m      C#m
e|----------------------------|
B|-7-7-5--4-7--7-5-4-7-7-5-4--|
G|-6-6-6--6-6--6-6-6-6-6-6-6--| x 2
D|-6-6-6--6-6--6-6-6-6-6-6-6--|
A|----------------------------|
E|----------------------------|


[Verse]

            C#m          C#m C#m      C#m          C#m C#m
Leave your number on the locker and I'll give you a call
         G#sus        G# G#    C#m     C#m C#m
Hey shut up, hey shut up, yeah
            C#m      C#m C#m      C#m                 C#m C#m
Leave your legacy in gold on the plaques that line the hall
         G#sus        G# G#    C#m     C#m C#m
Hey shut up, hey shut up, yeah



[Chorus]

         E             F#m        C#m
On the streets, such a sweet face jumping in town
         E             F#m        C#m
In the staff when the verdict is in
      E           A      F#m            B
In a car with a girl, promise me she's not your world
       B              E
Cause Andy, you're a star
             A
In nobody's eyes but mine
                E
Andy, you're a star
             A
In nobody's eyes but mine
                C#m
Andy, you're a star
             A
In nobody's eyes
    B                 C#m
In nobody's eyes but mine


[Ending]

  C#m  C#m  C#m      C#m      G#sus G#    C#m   C#m C#m
e|------------------------------------------------------|
B|-7-7-5--4-7--7-5-4-7-7-5-4--7-7-4--5-7--7-5-4-7-7-5-4-|
G|-6-6-6--6-6--6-6-6-6-6-6-6--4-4-4--6-6--6-6-6-6-6-6-6-|
D|-6-6-6--6-6--6-6-6-6-6-6-6--6-6-6--6-6--6-6-6-6-6-6-6-|
A|------------------------------------------------------|
E|------------------------------------------------------|


  C#m  C#m  C#m      C#m     G#sus G#
e|----------------------------------|
B|-7-7-5--4-7--7-5-4-7-7-5-4--7-7-4-|
G|-6-6-6--6-6--6-6-6-6-6-6-6--4-4-4-|
D|-6-6-6--6-6--6-6-6-6-6-6-6--6-6-6-|
A|----------------------------------|
E|----------------------------------|            
Submit corrections


        Andy Youre A Star lessons Hard to play? Try these video lessons and learn fast Andy Youre A Star lessons
        
↑ Back to top | Tablatures and chords for acoustic guitar and electric guitar, ukulele, drums are parodies/interpretations of the original songs. You may use it for private study, scholarship, research or language learning purposes only