» » »

The Kids - Forelska I Lrern Tabs

Artists:  A B C D E F G H I J K L M N O P Q R S T U V W X Y Z # 

Forelska I Lrern Tabs

(ver. 2) Click to play this song!
The Kids
 Rating:
4/5 (4 votes)


 Forelska I Lrern lessons Tabs too difficult? Try these video lessons and learn fast
 
                Guitar I and II

e||------------------------------------------------|
B||------------------------------------------------|
G||--------------------------4-6-8-6---------------|
D||----------------------4-6-----------------------|
A||-----4-4-4----4-4-4-6-7-------------------------|
E||------------------------------------------------|


  --------------------------------------------|
  --------------------------------------------|
  ----------------------4-6-8-6---------------|
  -----------------4-6------------------------|
  --------4-4-6-7-----------------------------|
  --------------------------------------------|


  ---------------------------------------------|
  ---------------------7pd---------------------|
  -------------------4-------------------------|
  --------------4-6----------------------------|
  -----4-4-6-7---------------------------------|
  ---------------------------------------------|

--------------------------------------------------|
-5p6-5p6-5p6--------------------------------------|
-------------5p6-5p6-5p6--------------------------|
-------------------------5p6-5p6-5p6--------------|
-------------------------------------5p6-5p6-5p6--|
--------------------------------------------------|


----------------------------------------------|
----------------------------------------------|
--------------------------4-6-8-6-------------|
----------------------4-6---------------------|
----4-4-4----4-4-4-6-7------------------------|
----------------------------------------------|


  --------------------------------------------|
  --------------------------------------------|
  ----------------------4-6-8-6---------------|
  -----------------4-6------------------------|
  --------4-4-6-7-----------------------------|
  --------------------------------------------|


  ---------------------------------------------|
  ---------------------7pd---------------------|
  -------------------4-------------------------|
  --------------4-6----------------------------|
  -----4-4-6-7---------------------------------|
  ---------------------------------------------|

Guitar 3:

C#-H-A

A-G#-F#-E
            
Submit corrections



        Forelska I Lrern lessons Hard to play? Try these video lessons and learn fast Forelska I Lrern lessons
        
↑ Back to top | Tablatures and chords for acoustic guitar and electric guitar, ukulele, drums are parodies/interpretations of the original songs. You may use it for private study, scholarship, research or language learning purposes only