Home » T » The Joy Formidable »

The Joy Formidable - Whirring Solonoise Tabs

Artists:  A B C D E F G H I J K L M N O P Q R S T U V W X Y Z # 

Whirring Solonoise Tabs

(ver. 1) Click to play this song!
The Joy Formidable
The fun starts with the Em power chord at 2:36. 

e|---------------------------------------------------------------------------|
B|---------------------------------------------------------------------------|
G|---------------------------------------------------------------------------|
D|--14----------(this is easy)-----------------------------------------------|
A|---------------------------------------------------------------------------|
E|---------------------------------------------------------------------------|

2:48 it picks up

[each line of tab is equal to 8 bars]

e|---------------------------------------------------------------------------|
B|---------------------------------------------------------------------------|
G|----11----------------9------------------14--------------13----------------|
D|---------------------------------------------------------------------------|
A|---------------------------------------------------------------------------|
E|---------------------------------------------------------------------------|

e|---------------------------------------------------------------------------|
B|---------------------------------------------------------------------------|
G|---11-------------9--11--------------9--14---16--18-16--14-13--------------|
D|---------------------------------------------------------------------------|
A|---------------------------------------------------------------------------|
E|---------------------------------------------------------------------------|

e|---------------------------------------------------------------------------|
B|---------------------------------------------------------------------------| 
G|---11------------9--11----------------9-11------------9--11----------------| ride the 11 until 3:42
D|---------------------------------------------------------------------------|
A|---------------------------------------------------------------------------|
E|---------------------------------------------------------------------------|

3:42 from here it's pretty simple, gonna keep the 8 bars per line for clarity

e|---------------------------------------------------------------------------|
B|---------------------------------------------------------------------------|
G|---12-------------14-------------------------------------------------------|
D|---------------------------------------------------------------------------|
A|---------------------------------------------------------------------------|
E|---------------------------------------------------------------------------|

e|---------------------------------------------------------------------------|
B|---------------------------------------------------------------------------|
G|---16-----------------------14---16----------------------------------------|
D|---------------------------------------------------------------------------|
A|---------------------------------------------------------------------------|
E|---------------------------------------------------------------------------|

e|---------------------------------------------------------------------------|
B|---14--------------12-14-----------12--14---------------12-14--------------|
G|---------------------------------------------------------------------------|
D|---------------------------------------------------------------------------|
A|---------------------------------------------------------------------------|
E|---------------------------------------------------------------------------|

e|------------------------------14-----------------16------19-----21---------|
B|--16-----------------------------------------------------------------------|
G|---------------------------------------------------------------------------|
D|---------------------------------------------------------------------------|
A|---------------------------------------------------------------------------|
E|---------------------------------------------------------------------------|            
Submit corrections

↑ Back to top | Tablatures and chords for acoustic guitar and electric guitar, ukulele, drums are parodies/interpretations of the original songs. You may use it for private study, scholarship, research or language learning purposes only