» » »

The John Barry Seven - The Magnificent Seven Tabs

Artists:  A B C D E F G H I J K L M N O P Q R S T U V W X Y Z # 

The Magnificent Seven Tabs

(ver. 1) Click to play this song!
The John Barry Seven
 Rating:
1.8/5 (29 votes)

 The Magnificent Seven  lessons Tabs too difficult? Try these video lessons and learn fast
 
                   1.Intro

E |6-----6---6-8---|--------6-6-4---|6-----6---6-8---|--------6-6-4---|
B-|7---------------|--7---7---------|7---------------|--7-7-7---------|
G-|----------------|----------------|----------------|----------------|
D-|----------------|----------------|----------------|----------------|
A-|----------------|----------------|----------------|----------------|
E-|----------------|----------------|----------------|----------------|

    1.Bassline intro

G-|----------------|----------------|----------------|----------------|
D-|----------------|----------------|----------------|----------------|
A-|------2---2-4---|--------2-2-4---|------2---2-4---|--------2-2-4---|
E-|2---------------|--2---2---------|2---------------|--2---2---------|


   2.Guitar ( Melody )

E |----------------|----------------|----------------|----------------|
B-|----------------|--------4-------|----7-----------|----------------|
G-|3---6-----------|------------6---|4---------------|----------------|
D-|----------------|----------------|----------------|----------------|
A-|----------------|----------------|----------------|----------------|
E-|----------------|----------------|----------------|----------------|


E |----------------|----------------|----------------|----------------|
B-|----------------|--------4-------|----------------|----------------|
G-|3---6-----------|------------6---|4---------------|----------------|
D-|----------------|----------------|----6-----------|--------4---6---|
A-|----------------|----------------|----------------|----------------|
E-|----------------|----------------|----------------|----------------|


E |----------------|----------------|----2--2--------|----------------|
B-|------------4---|2---------------|----------4-----|2---4-----------|
G-|3---6-----------|----3-----------|----------------|---------------3|
D-|----------------|--------4-------|----------------|--------4---6---|
A-|----------------|----------------|----------------|----------------|
E-|----------------|----------------|----------------|----------------|


   2.Bassline melody

G-|----------------|----------------|---------------|----------------|
D-|----------------|----------------|------1----4---|------1-----4---|
A-|------1-----4---|------1-----4---|2--------------|2---------------|
E-|2---------------|2---------------|---------------|----------------|



G-|----------------|----------------|---------------|----------------|
D-|----------------|----------------|---------------|------1-----3---|
A-|------1-----4---|------1-----4---|-----------2---|4---------------|
E-|2---------------|2---------------|0-----4--------|----------------|



G-|----------------|-------------3--|---------------|----------------|
D-|4---------------|1------4--------|------1----4---|----------------|
A-|-----4---1------|----------------|2--------------|4------2--------|
E-|----------------|----------------|---------------|------------3---|



* Intro 1x

* Melody 1x


  3.Bridge

E |6-----6---6-8---|--------6-6-4---|6-----6---6-8---|----------------|
B-|7---------------|--7---7---------|7---------------|--7-7-7-7-7-7-7-|
G-|----------------|----------------|----------------|----------------|
D-|----------------|----------------|----------------|----------------|
A-|----------------|----------------|----------------|----------------|
E-|----------------|----------------|----------------|----------------|


E |2---------------|--------7---4---|----------------|----------------|
B-|4---------------|--------------7-|5---------------|----------------|
G-|----------------|----------------|--------6-------|-------4----6---|
D-|----------------|----------------|----------------|----------------|
A-|----------------|----------------|----------------|----------------|
E-|----------------|----------------|----------------|----------------|


E |----------------|--------4-------|----------------|----------------|
B-|4-------7-------|------------7-4-|--------5-------|----------------|
G-|----------------|----------------|6---------------|----------------|
D-|----------------|----------------|----------------|----------------|
A-|----------------|----------------|----------------|----------------|
E-|----------------|----------------|----------------|----------------|            
Submit corrections


        The Magnificent Seven  lessons Hard to play? Try these video lessons and learn fast The Magnificent Seven  lessons
        
↑ Back to top | Tablatures and chords for acoustic guitar and electric guitar, ukulele, drums are parodies/interpretations of the original songs. You may use it for private study, scholarship, research or language learning purposes only