» » »

The John Barry Seven - The Human Jungle Tabs

Artists:  A B C D E F G H I J K L M N O P Q R S T U V W X Y Z # 

The Human Jungle Tabs

(ver. 1) Click to play this song!
The John Barry Seven
 Rating:
2.5/5 (28 votes)

 The Human Jungle  lessons Tabs too difficult? Try these video lessons and learn fast
 
                Song = 2 parts ( repeated )

Part 1 

** Guitarline
   
e|----------------|----------------|----------------|
B|----------------|----------------|----------------|
G|----------------|----------------|----------------|
D|----------------|----------------|----------------|
A|----------------|----------------|----------------|
E|--------------0-|5-5-8-8-7/8\7-60|5-5-8-8-7/8\7-60|   Repeat


** synthline - melody
   
e|----------------|----------------|----------------|----------------|
B|----------------|12------10------|12-10-----------|12------10------|
G|-------------9--|-----------9----|----------------|-----------9----|
D|----------------|-------------10-|----------------|-------------10-|
A|----------------|----------------|----------------|----------------|
E|----------------|----------------|----------------|----------------|

   
e|----------------|----------------|----------------|----------------|
B|----------------|----------------|----------------|----------------|
G|----------------|10------9-------|10-9------------|----------------|
D|9---------------|----------10-7--|----------------|9-10-7----------|
A|----------------|----------------|----------------|----------------|
E|----------------|----------------|----------------|----------------|



e|----------------|----------------|----------------|----------------|
B|----------------|12------10------|12-10-----------|12------10------|
G|-------------9--|-----------9----|----------------|-----------9----|
D|----------------|-------------10-|----------------|-------------10-|
A|----------------|----------------|----------------|----------------|
E|----------------|----------------|----------------|----------------|


e|----------------|----------------|----------------|----------------|
B|----------------|----------------|----------------|12-13-10--------|
G|----------------|10------9-------|10-9------------|----------------|
D|9---------------|----------10-7--|----------------|----------------|
A|----------------|----------------|----------------|----------------|
E|----------------|----------------|----------------|----------------|




Part 2

** saxophone 

   
e|6---------5-----|6-5-------5-8-7-|6---------5-----|5-----------5-7-|
B|------------5---|----------------|------------6---|----------------|
G|--------------5-|----------------|--------------7-|----------------|
D|----------------|----------------|----------------|----------------|
A|----------------|----------------|----------------|----------------|
E|----------------|----------------|----------------|----------------|


   
e|8---------7-----|8-7------7-10-8-|7-----------5---|----------------|
B|------------7---|----------------|--------------6-|5---------------|
G|--------------7-|----------------|----------------|----------------|
D|----------------|----------------|----------------|----------------|
A|----------------|----------------|----------------|----------------|
E|----------------|----------------|----------------|----------------|


** Bassline


|----------------|-----------------|----------------|----------------|
|----------------|-----------------|----------------|----------------|
|----------------|-----------------|----------------|----------------|
|6-------6-------|6-------6--------|5-------5-------|5-------5-------| 


|----------------|-----------------|----------------|----------------|
|----------------|-----------------|----------------|----------------|
|----------------|-----------------|----------------|----------------|
|8-------8-------|8-------8--------|12------12------|12------12------|            
Submit corrections


        The Human Jungle  lessons Hard to play? Try these video lessons and learn fast The Human Jungle  lessons
        
↑ Back to top | Tablatures and chords for acoustic guitar and electric guitar, ukulele, drums are parodies/interpretations of the original songs. You may use it for private study, scholarship, research or language learning purposes only