» » »

The John Barry Seven - Rodeo Tabs

Artists:  A B C D E F G H I J K L M N O P Q R S T U V W X Y Z # 

Rodeo Tabs

(ver. 1) Click to play this song!
The John Barry Seven
 Rating:
2.8/5 (25 votes)

 Rodeo  lessons Tabs too difficult? Try these video lessons and learn fast
 
                                   F                                  F

e|----------------|5---------------|5---------------|5---------------|
B|----------------|---6-----5------|--6---5---------|---6-----5------|
G|----------5-7-5-|------7-------5-|----7-----5-7-5-|------7-------5-|
D|----------------|----------------|----------------|----------------|
A|----------------|----------------|----------------|----------------|
E|----------------|----------------|----------------|----------------|


                    Gm                                F

e|5---------------|6---------------|6---------------|5---------------|
B|--6----5--------|---8--5--6------|--8-5-6---------|---6-----5------|
G|----7-----5-7-5-|--------------7-|----------5-7-5-|------7-------5-|
D|----------------|----------------|----------------|----------------|
A|----------------|----------------|----------------|----------------|
E|----------------|----------------|----------------|----------------|



e|5---------------|
B|--6---5---------|
G|----7-----------|
D|----------------|     repeat from the beginning
A|----------------|
E|----------------| 


   
  Pizzicato strings ( at 0:22 )


e|----------------|----------------|----------------|----------------|
B|-------1313-1110|----------101110|------1313-1110-|----------101110|
G|10--------------|10--------------|10--------------|10--------------|
D|----------------|----------------|----------------|----------------|
A|----------------|----------------|----------------|----------------|
E|----------------|----------------|----------------|----------------|



e|----------------|----------------|
B|-------1515-1311|------------10--|
G|12--------------|12---------12-12|   Repeat
D|----------------|----------------|
A|----------------|----------------|
E|----------------|----------------|


 
  Flute ( starts at 0:52 )

e|8---------------|---10--8--------|---------------|----------------|
B|----------------|----------10--6-|10-------------|----------------|
G|----------------|----------------|---------------|----------------|
D|----------------|----------------|---------------|----------------|
A|----------------|----------------|---------------|----------------|
E|----------------|----------------|---------------|----------------|


e|----------------|----------------|---------------|----------------|
B|8---------------|---10--8--------|---------------|----------------|
G|----------------|----------10--7-|10-------------|----------------|
D|----------------|----------------|---------------|----------------|
A|----------------|----------------|---------------|----------------|
E|----------------|----------------|---------------|----------------|
            
Submit corrections


        Rodeo  lessons Hard to play? Try these video lessons and learn fast Rodeo  lessons
        
↑ Back to top | Tablatures and chords for acoustic guitar and electric guitar, ukulele, drums are parodies/interpretations of the original songs. You may use it for private study, scholarship, research or language learning purposes only