» » »

The Japanese House - Saw You In A Dream Tabs

Artists:  A B C D E F G H I J K L M N O P Q R S T U V W X Y Z # 

Saw You In A Dream Tabs

(ver. 1) Click to play this song!
The Japanese House
 Rating:
4.4/5 (17 votes)

 Saw You In A Dream lessons Tabs too difficult? Try these video lessons and learn fast
 
                [Verse]

e|------x--------------x--------------x-------------x------x--------------------|
B|------7--------------4--------------7-------------x------x--------------------|
G|------8--------------4--------------9------------11------11-------------------|
D|------6--------------2--------------8------------11-------9-------------------|
A|------7--------------4--------------9-------------9-------9-------------------|
E|------x--------------x--------------x------------11------11-------------------|

This repeats a few times then...

e|------x--------------x--------------x------------x------2--------------------|
B|------7--------------4--------------7------------4------2----1---------------|
G|------8--------------4--------------9------------6------2----2---------------|
D|------6--------------2--------------8------------5------4----2---------------|
A|------7--------------4--------------9------------6------4--------------------|
E|------x--------------x--------------x------------x------2----x---------------|

e|---------------------------2-----4---------------------------------------------|
B|-----------1---------------2-----4---------------------------------------------|
G|---1-------2---------1-----2-----4---------------------------------------------|
D|---2-------2---------2-----4-----6---------------------------------------------|
A|---2-----------------2-----4-----6---------------------------------------------|
E|-----------x---------------2-----4---------------------------------------------|


[Chorus]

e|---5----------7------4---------5-------------7-------4---------5------------------|
B|---5----------7------4---------5-------------7-------4---------5------------------|
G|---6----------8------4---------6-------------8-------4---------6------------------|
D|---7----------9------6---------7-------------9-------6---------7------------------|
A|---7----------9------6---------7-------------9-------6---------7------------------|
E|---5----------7------4---------5-------------7-------4---------5------------------|

Repeats a few times and ends on the same first chord from the first verse...

e|--------x-------------------------------------------------------------------|
B|--------7-------------------------------------------------------------------|
G|--------8-------------------------------------------------------------------|
D|--------6-------------------------------------------------------------------|
A|--------7-------------------------------------------------------------------|
E|--------x-------------------------------------------------------------------|

            
Submit corrections


        Saw You In A Dream lessons Hard to play? Try these video lessons and learn fast Saw You In A Dream lessons
        
↑ Back to top | Tablatures and chords for acoustic guitar and electric guitar, ukulele, drums are parodies/interpretations of the original songs. You may use it for private study, scholarship, research or language learning purposes only