» » »

The Japanese House - Cool Blue Tabs

Artists:  A B C D E F G H I J K L M N O P Q R S T U V W X Y Z # 

Cool Blue Tabs

(ver. 1) Click to play this song!
The Japanese House
 Rating:
4.3/5 (20 votes)

 Cool Blue lessons Tabs too difficult? Try these video lessons and learn fast
 
                [Intro - Loops throughout whole song]

Guitar 1:

e|----------0-------------------0------------------0----------------------0-----------|
B|-----3-------3-----------3-------3----------3-------3--------------3-------3--------|
G|--5-----5-------------5-----5------------5-----5----------------5-----5-------------|
D|------------------------------------------------------------------------------------|
A|------------------------------------------------------------------------------------|
E|------------------------------------------------------------------------------------| x2

e|----------3-------------------3------------------3----------------------3-----------|
B|-----3-------3-----------3-------3----------3-------3--------------3-------3--------|
G|--5-----5-------------5-----5------------5-----5----------------5-----5-------------|
D|------------------------------------------------------------------------------------|
A|------------------------------------------------------------------------------------|
E|------------------------------------------------------------------------------------| x2

e|----------0-------------------0------------------0----------------------0-----------|
B|-----3-------3-----------3-------3----------3-------3--------------3-------3--------|
G|--5-----5-------------5-----5------------5-----5----------------5-----5-------------|
D|------------------------------------------------------------------------------------|
A|------------------------------------------------------------------------------------|
E|------------------------------------------------------------------------------------| x2

e|----------3-------------------3-----------------------------|
B|-----3-------3-----------3-------3--------------------------|
G|--5-----5-------------5-----5-------------------------------|
D|------------------------------------------------------------|
A|------------------------------------------------------------|
E|------------------------------------------------------------|

e|----------0-------------------0------------------0--------------|
B|-----3-------3-----------3-------3----------3-------3-----------|
G|--5-----5-------------5-----5------------5-----5----------------|
D|----------------------------------------------------------------|
A|----------------------------------------------------------------|
E|----------------------------------------------------------------|

(Guitar 1 repeats this for whole of the song)


Guitar 2:

(Comes in at 0:18...)

e|---------------------------------------------------------------------------|
B|---5-----------------------------------------------------------------------|
G|----------5-----5------0-------2--/4---------------------------------------|
D|---------------------------------------------------------------------------|
A|---------------------------------------------------------------------------|
E|---------------------------------------------------------------------------|x4 (with some variation)

[Chorus - where drums come in] Hold on notes

e|---------------------------------------------------------------------------|
B|----0----5-----------------------------------------------------------------|
G|-------------5---------0--------2------------------------------------------|
D|---------------------------------------------------------------------------|
A|---------------------------------------------------------------------------|
E|---------------------------------------------------------------------------|x4

[Verse - Quieter section]

e|---------------------------------------------------------------------------|
B|---5-----------------------------------------------------------------------|
G|----------5-----5------0-------2--/4---------------------------------------|
D|---------------------------------------------------------------------------|
A|---------------------------------------------------------------------------|
E|---------------------------------------------------------------------------|x3 (with some variation)


[Chorus - drums come in] Hold on notes 

e|---------------------------------------------------------------------------|
B|----0----5-----------------------------------------------------------------|
G|-------------5---------0--------2------------------------------------------|
D|---------------------------------------------------------------------------|
A|---------------------------------------------------------------------------|
E|---------------------------------------------------------------------------|x2


[Bridge] - Guitar 1 plays loop, Guitar 2 comes back in at 3:09...

Hold on notes

e|---------------------------------------------------------------------------|
B|------------5--------------------------------------------------------------|
G|---5-------------------2----------4---------5----------4-------------------|
D|---------------------------------------------------------------------------|
A|---------------------------------------------------------------------------|
E|---------------------------------------------------------------------------|


[Final Chorus] Hold on notes 

e|---------------------------------------------------------------------------|
B|----0----5-----------------------------------------------------------------|
G|---------------5---------0--------2----------------------------------------|
D|---------------------------------------------------------------------------|
A|---------------------------------------------------------------------------|
E|---------------------------------------------------------------------------|x4

            
Submit corrections


        Cool Blue lessons Hard to play? Try these video lessons and learn fast Cool Blue lessons
        
↑ Back to top | Tablatures and chords for acoustic guitar and electric guitar, ukulele, drums are parodies/interpretations of the original songs. You may use it for private study, scholarship, research or language learning purposes only