Home » T » The Icarus Account »

The Icarus Account - Tsunami Tabs

Artists:  A B C D E F G H I J K L M N O P Q R S T U V W X Y Z # 

Tsunami Tabs

(ver. 1) Click to play this song!
The Icarus Account
[Intro]
e|---12------2p0-|---3------2p0-|---5------2p0-|---3p0---5p0---7p0-|
B|---10------3p0-|---5------3p0-|---7------3p0-|---5p0---7p0---8p0-|
G|-0-------0-----|-0------0-----|-0------0-----|-0-----0-----0-----|
D|---------------|--------------|--------------|-------------------|
A|---------------|--------------|--------------|-------------------|
E|---------------|--------------|--------------|-------------------|x2

[Verse]
e|---12------2p0-|---3------2p0-|---5------2p0-|---3p0---5p0---7p0-|
B|---10------3p0-|---5------3p0-|---7------3p0-|---5p0---7p0---8p0-|
G|-0-------0-----|-0------0-----|-0------0-----|-0-----0-----0-----|
D|---------------|--------------|--------------|-------------------|
A|---------------|--------------|--------------|-------------------|
E|---------------|--------------|--------------|-------------------|x3

e|---12------2p0-|---3------2p0-|---5----------|---x---------------|
B|---10------3p0-|---5------3p0-|---7----------|---x---------------|
G|-0-------0-----|-0------0-----|-0------------|---x---------------|
D|---------------|--------------|--------------|---x---------------|
A|---------------|--------------|--------------|---x---------------|
E|---------------|--------------|--------------|---x---------------|

[Pre-chorus]
e|-------------|---------|-------------|-----------|
B|-------------|---------|-------------|-----------|
G|-0-----0h2p4-|-2-------|-0-----0h2p4-|-2p0-------|
D|-2-----------|---------|-0-----------|-----2---0-|
A|-3-----------|---------|-------------|-----------|
E|-------------|---------|-3-----------|-----------|

e|-------------|---------|-------------|-x---------|
B|-------------|---------|-------------|-x---------|
G|-0-----0h2p4-|-2-------|-0-----------|-x---------|
D|-------------|---------|-4-----------|-x---------|
A|-2-----------|---------|-5-----------|-x---------|
E|-0-----------|---------|-------------|-x---------|

[Chorus]
  PM---------------------------|
e|--------|--------|--------|--------|
B|--------|--------|--------|--------|
G|-0------|-0------|-0------|-0------|
D|-2------|-8------|-5------|-4------|
A|-3------|-10-----|-7------|-5------|
E|--------|--------|--------|--------|x2

e|--------|--------|--------|--------|
B|-5------|-12-----|-8------|-7------|
G|-0------|-0------|-0------|-0------|
D|-2------|-8------|-5------|-4------|
A|-3------|-10-----|-7------|-5------|
E|--------|--------|--------|--------|

e|--------|--------|--------|--------|
B|-5------|-12-----|-7------|--------|
G|-0------|-0------|-0------|--------|
D|-2------|-8------|-4------|--------|
A|-3------|-10-----|-5------|--------|
E|--------|--------|--------|--------|

e|---12------2p0-|---3------2p0-|---5------2p0-|---3p0---5p0---7p0-|
B|---10------3p0-|---5------3p0-|---7------3p0-|---5p0---7p0---8p0-|
G|-0-------0-----|-0------0-----|-0------0-----|-0-----0-----0-----|
D|---------------|--------------|--------------|-------------------|
A|---------------|--------------|--------------|-------------------|
E|---------------|--------------|--------------|-------------------|x2

[Verse]
e|---12------2p0-|---3------2p0-|---5------2p0-|---3p0---5p0---7p0-|
B|---10------3p0-|---5------3p0-|---7------3p0-|---5p0---7p0---8p0-|
G|-0-------0-----|-0------0-----|-0------0-----|-0-----0-----0-----|
D|---------------|--------------|--------------|-------------------|
A|---------------|--------------|--------------|-------------------|
E|---------------|--------------|--------------|-------------------|x3

e|---12------2p0-|---3------2p0-|---5----------|---x---------------|
B|---10------3p0-|---5------3p0-|---7----------|---x---------------|
G|-0-------0-----|-0------0-----|-0------------|---x---------------|
D|---------------|--------------|--------------|---x---------------|
A|---------------|--------------|--------------|---x---------------|
E|---------------|--------------|--------------|---x---------------|

[Pre-chorus]
e|-------------|---------|-------------|-----------|
B|-------------|---------|-------------|-----------|
G|-0-----0h2p4-|-2-------|-0-----0h2p4-|-2p0-------|
D|-2-----------|---------|-0-----------|-----2---0-|
A|-3-----------|---------|-------------|-----------|
E|-------------|---------|-3-----------|-----------|

e|-------------|---------|-------------|-x---------|
B|-------------|---------|-------------|-x---------|
G|-0-----0h2p4-|-2-------|-0-----------|-x---------|
D|-------------|---------|-4-----------|-x---------|
A|-2-----------|---------|-5-----------|-x---------|
E|-0-----------|---------|-------------|-x---------|

[Chorus]
e|--------|--------|--------|--------|
B|-5------|-12-----|-8------|-7------|
G|-0------|-0------|-0------|-0------|
D|-2------|-8------|-5------|-4------|
A|-3------|-10-----|-7------|-5------|
E|--------|--------|--------|--------|x3

e|--------|--------|--------|--------|
B|-5------|-12-----|-8------|--------|
G|-0------|-0------|-0------|--------|
D|-2------|-8------|-5------|--------|
A|-3------|-10-----|-7------|--------|
E|--------|--------|--------|--------|

[Bridge]
e|---------|---------|-------------|-------------|
B|-8-----3-|-5-----3-|-0-----0h2p4-|-2p0---------|
G|-0-----0-|-0-----0-|-0-----------|-----2p0-----|
D|---------|---------|-0-----------|---------0h2-|
A|-7-----2-|-3-----2-|-------------|-------------|
E|---------|---------|-3-----------|-------------|

e|---------|---------|-------------|-10--10--10--|
B|-8-----3-|-5-----3-|-12----------|-12--12--12--|
G|-0-----0-|-0-----0-|-0-----------|-0---0---0---|
D|---------|---------|-------------|-------------|
A|-7-----2-|-3-----2-|-10----------|-10--10--10--|
E|---------|---------|-------------|-------------|

e|---------|---------|-------------|-------------|---------|---------|---------------|-10--10--10--|
B|-8-----3-|-5-----3-|-0-----------|-0-----------|-8-----3-|-5-----3-|-12------------|-12--12--12--|
G|-0-----0-|-0-----0-|-0-----------|-0-----------|-0-----0-|-0-----0-|-0-------------|-0---0---0---|
D|---------|---------|-0-----------|-0-----------|---------|---------|---------------|-------------|
A|-7-----2-|-3-----2-|-------------|-------------|-7-----2-|-3-----2-|-10------------|-10--10--10--|
E|---------|---------|-3-----------|-3-----------|---------|---------|---------------|-------------|x3

[Pre-chorus]
e|---------|---------|---------|----------|
B|-5-------|-7-------|-8-------|-10-------|
G|-0-------|-0-------|-0-------|-0--------|
D|-2-------|-4-------|-5-------|-7--------|
A|-3-------|-5-------|-7-------|-9--------|
E|---------|---------|---------|----------|

[Chorus]
  PM---------------------------|
e|--------|--------|--------|--------|
B|--------|--------|--------|--------|
G|-0------|-0------|-0------|-0------|
D|-2------|-8------|-5------|-4------|
A|-3------|-10-----|-7------|-5------|
E|--------|--------|--------|--------|

  PM------------------|
e|--------|--------|--------|-x------|
B|--------|--------|--------|-x------|
G|-0------|-0------|-0------|-x------|
D|-2------|-8------|-5------|-x------|
A|-3------|-10-----|-7------|-x------|
E|--------|--------|--------|-x------|

e|--------|--------|--------|--------|
B|-5------|-12-----|-8------|-7------|
G|-0------|-0------|-0------|-0------|
D|-2------|-8------|-5------|-4------|
A|-3------|-10-----|-7------|-5------|
E|--------|--------|--------|--------|x3

e|--------|--------|--------|--------|
B|-5------|-12-----|-8------|--------|
G|-0------|-0------|-0------|--------|
D|-2------|-8------|-5------|--------|
A|-3------|-10-----|-7------|--------|
E|--------|--------|--------|--------|

[Outro]
e|---12------2p0-|---3------2p0-|---5------2p0-|---3p0---5p0---7p0-|
B|---10------3p0-|---5------3p0-|---7------3p0-|---5p0---7p0---8p0-|
G|-0-------0-----|-0------0-----|-0------0-----|-0-----0-----0-----|
D|---------------|--------------|--------------|-------------------|
A|---------------|--------------|--------------|-------------------|
E|---------------|--------------|--------------|-------------------|

e|---12------2p0-|---3------2p0-|---5---7---7--|---3---------------|
B|---10------3p0-|---5------3p0-|---7---8---5--|---0---------------|
G|-0-------0-----|-0------0-----|-0---0---0----|-0-0---------------|
D|---------------|--------------|--------------|---0---------------|
A|---------------|--------------|--------------|-------------------|
E|---------------|--------------|--------------|---3---------------|            
Submit corrections

↑ Back to top | Tablatures and chords for acoustic guitar and electric guitar, ukulele, drums are parodies/interpretations of the original songs. You may use it for private study, scholarship, research or language learning purposes only