» » »

The Hush Sound - You Are The Moon Tabs

Artists:  A B C D E F G H I J K L M N O P Q R S T U V W X Y Z # 

You Are The Moon Tabs

(ver. 1) Click to play this song!
The Hush Sound
 Rating:
4/5 (4 votes)

 You Are The Moon lessons Tabs too difficult? Try these video lessons and learn fast
 
                

Verse Riff 1:

E -17-14-14-17-14---------------------------------------------------------|
B -----------------------17-17-14---14-14-15-17---------------------------|
G ----------------------------------------------16------------------------|
D ------------------------------------------------------------------------|
A ------------------------------------------------------------------------|
E ------------------------------------------------------------------------|

Verse Riff 2:

E ----------5-4-4-------5-4-------------------------------------------------|
B -2-5-2-5---------5-5------------------------------------------------------|
G ---------------------------6-6--------------------------------------------|
D --------------------------------------------------------------------------|
A --------------------------------------------------------------------------|
E --------------------------------------------------------------------------|


Play Riff 1 (x2)

Play Riff 2 (x1)


Verse Riff 3:

E ------------------------------------------------------------------------|
B -2-3-5--2-3-5-----2-----------------------------------------------------|
G -------------------------2-2--2-4---------------------------------------|
D ------------------------------------------------------------------------|
A ------------------------------------------------------------------------|
E ------------------------------------------------------------------------|


Play Riff 1 (x2)

Play Riff 2 (x1)

Play Riff 3 (x1)


Interlude:


E -----------------16171617161716-------------------------------------------|
B -17141714171417-----------------1414----(14-15-14-15-14-15-14)-(x2)-------|
G --------------------------------------------------------------------------|
D --------------------------------------------------------------------------|
A --------------------------------------------------------------------------|
E --------------------------------------------------------------------------|

Play Interlude (x1)

Play Verse Riffs twice, play Interlude twice.

End on:

E --------------------------------------------------------------------------|
B -14-15-14-15-14-15-14------------------------------3----------------------|
G --------------------------------16-16-----4---4--6----6~------------------|
D --------------------------------------------------------------------------|
A --------------------------------------------------------------------------|
E --------------------------------------------------------------------------|

Chords:


    F#m       D          A         Bm         E         C#m


E --2---------2------------------------------------------4------------------|
B --2---------3----------2---------3---------------------5------------------|
G --2---------2----------2---------4----------1----------6------------------|
D --4---------0----------2---------4----------2----------6------------------|
A --4---------0----------0---------2----------2----------4------------------|
E --2-----------------------------------------0-----------------------------|


Intro:     F#m D A Bm
           F#m D E F#m

Verse:     F#m D A Bm
           F#m D A Bm
           F#m D E F#m
           F#m D A Bm


Interlude (6/8 Time, strum each 6 times slowly)  F#m A D D


Ending:    C#m C#m F#m
            
Submit corrections


        You Are The Moon lessons Hard to play? Try these video lessons and learn fast You Are The Moon lessons
        
↑ Back to top | Tablatures and chords for acoustic guitar and electric guitar, ukulele, drums are parodies/interpretations of the original songs. You may use it for private study, scholarship, research or language learning purposes only