Home » T » The Hush Sound »

The Hush Sound - Weeping Willow Ukulele

Artists:  A B C D E F G H I J K L M N O P Q R S T U V W X Y Z # 

Weeping Willow Ukulele

(ver. 1) Click to play this song!
The Hush Sound
The Hush Sound
-Weeping Willow
Standard Tuning
Enjoy!!!
                   Chords Used
   D#m   A#m    B    G#m   F#    C#    D#m            
e|--6--|--6--|--7--|--4--|--2--|--4--|--6--|
B|--7--|--6--|--7--|--4--|--2--|--6--|--8--|
G|--8--|--6--|--8--|--4--|--3--|--6--|--8--|
D|--8--|--8--|--9--|--6--|--4--|--6--|--8--|
A|--6--|--8--|--9--|--6--|--4--|--4--|--6--|
E|--X--|--6--|--7--|--4--|--2--|--X--|--X--|

D#m                     A#m         B        G#m
The snow won't stick to the weeping willows
    D#m                 A#m         B    G#m
the cold air won't blow open the windows
D#m                        A#m
You've made it through the storm this far
B                         G#m
You've done this dear, it won't be hard
D#m                    A#m            B        G#m
  The snow won't stick to the weeping willows

D#m     A#m     B      G#       D#m            A#m       B     G#m       
  There will be tomorrow     the sun will light a sea of sorrow   
e|---------------------------------------------|
B|---------------------------------------------|
G|xx8------------------------------------------|
D|xx8--xx8--xx9--6-6h8p6--4--xx4--xx8--xx9\-6--|
A|xx6--xx8--xx9--6--------4--xx4--xx8--xx9\-6x8|
E|-----xx6--xx7--4--------2--xx2--xx6--xx7\-4--|

D#m               A#m 
Tonight it set and took our friend
e|---6---6-----6---6----|
B|-----7---7-----7---7--|
G|-8--8-8-8-8---8-8-8-8-|
D|----------------------|
A|----------------------|
E|----------------------|
   B                        G#m
If I could do one thing, I'd bring him back
e|---6---6-----6---6----|
B|-----7---7-----7---7--|
G|-8--8-8-8-8---8-8-8-8-|
D|----------------------|
A|----------------------|
E|----------------------|

D#m                   A#m          B     G#m
  Snow won't stick to the weeping willows
e|-------------------|
B|-------------------|
G|xx8----------------|
D|xx8--xx8--xx9--6---|
A|xx6--xx8--xx9--6x16|
E|-----xx6--xx7--4---|

F#                        C#
Summer was painted on our skin
                        D#m 
and those secrets hidden in our childish lips
B
they would die for a kiss
F#                           C#
Fall was always left in your eyes
                       D#m
just a fleck of yellow light
               B
like the sunrise
               B
like the twilight
F#                        C#
Summer was painted on our skin
                        D#m 
and those secrets hidden in our childish lips
B
They would die for a kiss

e|---------------------------------------------|
B|---------------------------------------------|
G|xx8------------------------------------------|
D|xx8--xx8--xx9--6-6h8p6--4--xx4--xx8--xx9\-6--|
A|xx6--xx8--xx9--6--------4--xx4--xx8--xx9\-6--|
E|-----xx6--xx7--4--------2--xx2--xx6--xx7\-4--|

D#m     A#m     B      G#       D#m            A#m       B     G#m       
  There will be tomorrow     the sun will light a sea of sorrow   
e|---------------------------------------------|
B|---------------------------------------------|
G|xx8------------------------------------------|
D|xx8--xx8--xx9--6-6h8p6--4--xx4--xx8--xx9\-6--|
A|xx6--xx8--xx9--6--------4--xx4--xx8--xx9\-6x8|
E|-----xx6--xx7--4--------2--xx2--xx6--xx7\-4--|

D#m               A#m 
Tonight it set and took our friend
e|---6---6-----6---6----|
B|-----7---7-----7---7--|
G|-8--8-8-8-8---8-8-8-8-|
D|----------------------|
A|----------------------|
E|----------------------|
     B                      G#m
If I could do one thing, I'd bring him back
e|---6---6-----6---6----|
B|-----7---7-----7---7--|
G|-8--8-8-8-8---8-8-8-8-|
D|----------------------|
A|----------------------|
E|----------------------|

D#m                   A#m          B     G#m
  Snow won't stick to the weeping willows
e|-------------------|
B|-------------------|
G|xx8----------------|
D|xx8--xx8--xx9--6---|
A|xx6--xx8--xx9--6x16|
E|-----xx6--xx7--4---|

F#                        C#
Summer was painted on our skin
                        D#m 
and those secrets hidden in our childish lips
B
they would die for a kiss
F#                           C#
Fall was always left in your eyes
                       D#m
just a fleck of yellow light
               B
like the sunrise
               B
like the twilight
F#                        C#
Summer was painted on our skin
                        D#m 
and those secrets hidden in our childish lips
B
They would die for a kiss

e|---------------------------------------------|
B|---------------------------------------------|
G|xx8------------------------------------------|
D|xx8--xx8--xx9--6-6h8p6--4--xx4--xx8--xx9\-6--|
A|xx6--xx8--xx9--6--------4--xx4--xx8--xx9\-6--|
E|-----xx6--xx7--4--------2--xx2--xx6--xx7\-4--|
            
Submit corrections

↑ Back to top | Tablatures and chords for acoustic guitar and electric guitar, ukulele, drums are parodies/interpretations of the original songs. You may use it for private study, scholarship, research or language learning purposes only