» » »

The Hush Sound - Intro Tabs

Artists:  A B C D E F G H I J K L M N O P Q R S T U V W X Y Z # 

Intro Tabs

(ver. 1) Click to play this song!
The Hush Sound
 Rating:
4.3/5 (6 votes)

 Intro lessons Tabs too difficult? Try these video lessons and learn fast
 
                 ___________________________
|                           |
|   INTRO- THE HUSH SOUND   |
| ------------------------- |
|                           |
|___________________________|


e|-------5-3-------5-5-----8-7-8-12-12-10-8---|
B|-5-4-5-----5-4-5----------------------------|
G|--------------------------------------------|
D|--------------------------------------------|
A|--------------------------------------------|
E|--------------------------------------------|

e|-12-10-8-7--10-8-7-5--8-7-5-3--7-5-3--------|
B|--------------------------------------------|
G|--------------------------------------------|
D|--------------------------------------------|
A|--------------------------------------------|
E|--------------------------------------------|

e|-1-0----------------------------------------|
B|-----3-1~-----------------------------------|
G|--------------------------------------------|
D|--------------------------------------------|
A|--------------------------------------------|
E|--------------------------------------------|

Little children, whirling laughing. They don't know they should be scared.
e|--3--3-4-4-3-1~-----3--3-4-4-3~-------------|
B|-5-5---------------5-5----------------------|
G|--------------------------------------------|
D|--------------------------------------------|
A|--------------------------------------------|
E|--------------------------------------------|

Give me that hope, give me time to love.
e|-8-7-5-3-1-0-0~-----------------------------|
B|----------------3~-1~-----------------------|
G|--------------------------------------------|
D|--------------------------------------------|
A|--------------------------------------------|
E|--------------------------------------------|

High above the glowing city, planes make circles humming madly.
e|--3--3-4-4-3-1~-----3--3-4-4-3~-------------|
B|-5-5---------------5-5----------------------|
G|--------------------------------------------|
D|--------------------------------------------|
A|--------------------------------------------|
E|--------------------------------------------|

Please keep me safe, give me time to love.
e|-8-7-5-3-1-0-0~-----------------------------|
B|----------------3~-1~-----------------------|
G|--------------------------------------------|
D|--------------------------------------------|
A|--------------------------------------------|
E|--------------------------------------------|

All I can do, all i can say...is...
e|-7-7-7-10~---7-6-7-7-10~---8----------------|
B|--------------------------------------------|
G|--------------------------------------------|
D|--------------------------------------------|
A|--------------------------------------------|
E|--------------------------------------------|

Keep you safely in my arms. I'll close your ears to not hear harm.
e|-12-10-8-7--10-8-7-5--8-7-5-3--7-5-3--------|
B|--------------------------------------------|
G|--------------------------------------------|
D|--------------------------------------------|
A|--------------------------------------------|
E|--------------------------------------------|

I'll sing to you.
e|-1-0----------------------------------------|
B|-----3-1~-----------------------------------|
G|--------------------------------------------|
D|--------------------------------------------|
A|--------------------------------------------|
E|--------------------------------------------|

Sorry I don't know the outro :P
It might sound a little weird, this is a song for piano, but yeah... sounds fine to me.
            
Submit corrections


        Intro lessons Hard to play? Try these video lessons and learn fast Intro lessons
        
↑ Back to top | Tablatures and chords for acoustic guitar and electric guitar, ukulele, drums are parodies/interpretations of the original songs. You may use it for private study, scholarship, research or language learning purposes only