» » »

The Hush Sound - Honey Tabs

Artists:  A B C D E F G H I J K L M N O P Q R S T U V W X Y Z # 

Honey Tabs

(ver. 1) Click to play this song!
The Hush Sound
 Rating:
4.6/5 (9 votes)

 Honey lessons Tabs too difficult? Try these video lessons and learn fast
 
                (Intro)
Hey everyone... i realized that this song hasnt been tabbed yet so i decided to tab the 
its pretty much flawless, but also really easy to play. its standard tuning. this is 
my 1st tab so i hope you guys csn use it. listen to the song to pick up the tune.

e----------12-10-8-12-12-10-8|
B--13-10-13------------------|
G----------------------------|
D----------------------------|
A----------------------------|
E----------------------------|


e--------------------12-10|
B--10-10-10-12-10-9-9-----|
G-------------------------|
D-------------------------|
A-------------------------|
E-------------------------|

e----------12-10-8-17-17-15-12|
B--13-10-13-------------------|
G-----------------------------|
D-----------------------------|
A-----------------------------|
E-----------------------------|


e--8-8-8-10-8-7-7-8-7-8------|
B----------------------------|
G----------------------------|
D----------------------------|
A----------------------------|
E----------------------------|
            
Submit corrections


        Honey lessons Hard to play? Try these video lessons and learn fast Honey lessons
        
↑ Back to top | Tablatures and chords for acoustic guitar and electric guitar, ukulele, drums are parodies/interpretations of the original songs. You may use it for private study, scholarship, research or language learning purposes only