» » »

The Hush Sound - City Traffic Puzzle Tabs

Artists:  A B C D E F G H I J K L M N O P Q R S T U V W X Y Z # 

City Traffic Puzzle Tabs

(ver. 1) Click to play this song!
The Hush Sound
 Rating:
4/5 (4 votes)

 City Traffic Puzzle lessons Tabs too difficult? Try these video lessons and learn fast
 
                Track 1 from "So Sudden"

(The top note in this chord can be an open e string too, whichever sounds best/is easiest to play.
This is just the way that I like playing it)
             r m i p r m i m
e----------|-----------------|-----------------|
B-5~~------|-------5-------3-|-------5-------3-|
G-2~~------|-----2-------2---|-----2-------2---|
D-3~~------|---3-------3-----|---3-------3-----|
A-5~~------|-5-------5-------|-5-------5-------|
E----------|-----------------|-----------------|

(The first chord sounds okay, but there?s definitely more notes missing. Please feel free to comment and fix)
e-5-7-8-8-7-5-|-5-7-8-7-5-|-----------------|---------------|
B-5-----------|-5---------|-5h6p5-3-5-3-1-0-|-1-0---0-------|
G-------------|-----------|-----------------|-----2---2-1-2-|
D-------------|-----------|-----------------|---------------|
A-------------|-----------|-----------------|---------------|
E-------------|-----------|-----------------|---------------|

e-----------------|-----------------|---------------|
B-------5-------3-|-------5-------3-|---1---1-3-4b5-|
G-----2-------2---|-----2-------2---|-2---2---------|
D---3-------3-----|---3-------3-----|---------------|
A-5-------5-------|-5-------5-------|---------------|
E-----------------|-----------------|---------------|

e---------------|---------------|---------------|
B-------1---0---|-------0-1-0---|---------------|
G---2-----2---1-|-2---2-------2-|---------------|
D-2---2---------|---2-----------|-2---0-2---0---|
A---------------|---------------|---3-----3---0-|
E---------------|---------------|---------------|

e---------------|---------------|
B-----5-------3-|-----5-------3-|
G----2-------2--|----2-------2--|
D---3-------3---|---3-------3---|
A-5-------5-----|-5-------5-----|
E---------------|---------------|
            
Submit corrections


        City Traffic Puzzle lessons Hard to play? Try these video lessons and learn fast City Traffic Puzzle lessons
        
↑ Back to top | Tablatures and chords for acoustic guitar and electric guitar, ukulele, drums are parodies/interpretations of the original songs. You may use it for private study, scholarship, research or language learning purposes only