» » »

The Hot Stewards - We Dont Have To Take Our Clothes Off Bass

Artists:  A B C D E F G H I J K L M N O P Q R S T U V W X Y Z # 

We Dont Have To Take Our Clothes Off Bass

(ver. 1) Click to play this song!
The Hot Stewards
 Rating:
4/5 (4 votes)

 We Dont Have To Take Our Clothes Off lessons Tabs too difficult? Try these video lessons and learn fast
 
                ---------------------------------------------------------------------------
	 WE DON'T HAVE TO TAKE OUR CLOTHES OFF – The Hot Stewards
---------------------------------------------------------------------------



Tuning: standard 5-string (BEADG)


Intro (no bass)

Verse
G|----------------|
D|----------------|
A|-0--2-4--0--4-2-| 4x
E|----------------|
B|----------------|

Pre-chorus
G|------7------------------------|
D|-------------------------------|
A|-55555-5577777777----------0-0-|
E|-----------------22224444------|
B|-------------------------------|

Chorus
G|---------------------------6-6666---------------------------------|
D|------------------------------------------------------------------|
A|-00000022444444440000002244-4----0000002244444444--------22222222-|
E|-------------------------------------------------22220000---------|
B|------------------------------------------------------------------|

Verse
G|----------------|
D|----------------|
A|-0--2-4--0--4-2-| 2x
E|----------------|
B|----------------|

Pre-chorus
G|---------------------------------|
D|---------------------------------|
A|-9\5555555577777777----------0-0-|
E|-------------------22224444------|
B|---------------------------------|

Chorus
G|---------------------------6-6666---------------------------------|
D|------------------------------------------------------------------|
A|-00000022444444440000002244-4----0000002244444444--------22222222-|
E|------------------------------------------------------------------|
B|------------------------------------------------------------------|

G|---------------------------6-6666---------------------------------|
D|------------------------------------------------------------------|
A|-00000022444444440000002244-4----0000002244444444--------22222222-|
E|-------------------------------------------------22220000---------|
B|------------------------------------------------------------------|
Pre-chorus
G|-------------------------------|
D|-------------------------------|
A|-5555555577777777----------0-0-|
E|-----------------22224444------|
B|-------------------------------|

Chorus
G|---------------------------6-6666--------------------------|
D|-----------------------------------------------------------|
A|-00000022444444440000002244-4----0000002244444444--------2-|
E|-------------------------------------------------22220000--|
B|-----------------------------------------------------------|

Bridge (no bass while 'nanana')

Outro (play til the song fades)
G|---------------------------6-6666--------------------------|
D|-----------------------------------------------------------|
A|-00000022444444440000002244-4----0000002244444444--------2-|
E|-------------------------------------------------22220000--|
B|-----------------------------------------------------------|


| \  slide down
===========================================================================
            
Submit corrections


        We Dont Have To Take Our Clothes Off lessons Hard to play? Try these video lessons and learn fast We Dont Have To Take Our Clothes Off lessons
        
↑ Back to top | Tablatures and chords for acoustic guitar and electric guitar, ukulele, drums are parodies/interpretations of the original songs. You may use it for private study, scholarship, research or language learning purposes only