» » »

The Hot Stewards - Touch Me Bass

Artists:  A B C D E F G H I J K L M N O P Q R S T U V W X Y Z # 

Touch Me Bass

(ver. 1) Click to play this song!
The Hot Stewards
 Rating:
4/5 (4 votes)

 Touch Me lessons Tabs too difficult? Try these video lessons and learn fast
 
                ---------------------------------------------------------------------------
			     TOUCH ME – The Hot Stewards
---------------------------------------------------------------------------



Tuning: standard 5-string (BEADG)


Intro
G|-----|
D|-----|
A|-----|
E|-----|
B|-3-3-|

Verse
G|----------------------------------|
D|----------------------------------|
A|----------------------------------| 2x
E|-55555555111111113333333300000000-|
B|----------------------------------|

Pre-chorus
G|---------------------------------------------|
D|----12-14~----12-14~------9~-----10-10-10----|
A|-12--------10--------7~-----7-8----8--8—(8\)-|
E|---------------------------------------------|
B|---------------------------------------------|

Chorus
G|------------------------------------------|
D|------------------------------------------|
A|-----------7-7-7-----------2-2-2----------|
E|-1111333355-5-5-51111333300-0-0-011113333-|
B|------------------------------------------|

Post-Chorus
G|-----|
D|-----|
A|-----|
E|-----|
B|-3-3-|

Verse
G|----------------------------------|
D|----------------------------------|
A|----------------------------------| 2x
E|-55555555111111113333333300000000-|
B|----------------------------------|

Pre-chorus
G|---------------------------------------------|
D|----12-14~----12-14~------9~-----10-10-10----|
A|-12--------10--------7~-----7-8----8--8—(8\)-|
E|---------------------------------------------|
B|---------------------------------------------|

Chorus
G|------------------------------------------|
D|------------------------------------------|
A|-----------7-7-7-----------2-2-2----------|
E|-1111333355-5-5-51111333300-0-0-011113333-|
B|------------------------------------------|

G|------------------------------------------|
D|------------------------------------------|
A|-----------7-7-7--------------------------|
E|-1111333355-5-5-5111133330000000011113333-|
B|------------------------------------------|

Post-Chorus
G|-----|
D|-----|
A|-----|
E|-----|
B|-3-3-|

Bridge
G|-----------------------------------------------|
D|-----------------------------------------------|
A|-----------------------------------------------|
E|-0-0-1-1-3-3-5~----5~---5~(/)----5~(/)----5~~--|
B|-----------------------------------------------|

Chorus
G|------------------------------------------|
D|------------------------------------------|
A|-----------7-7-7-----------2-2-2----------| 2x
E|-1111333355-5-5-51111333300-0-0-011113333-|
B|------------------------------------------|

Ending
G|--------|
D|--------|
A|--------|
E|-----5\-|
B|-3-3----|


| /  slide up
| \  slide down
| ~  vibrato

===========================================================================
            
Submit corrections


        Touch Me lessons Hard to play? Try these video lessons and learn fast Touch Me lessons
        
↑ Back to top | Tablatures and chords for acoustic guitar and electric guitar, ukulele, drums are parodies/interpretations of the original songs. You may use it for private study, scholarship, research or language learning purposes only