» » »

The Hot Stewards - The Locomotion Bass

Artists:  A B C D E F G H I J K L M N O P Q R S T U V W X Y Z # 

The Locomotion Bass

(ver. 1) Click to play this song!
The Hot Stewards
 Rating:
4/5 (4 votes)

 The Locomotion lessons Tabs too difficult? Try these video lessons and learn fast
 
                ---------------------------------------------------------------------------
                     THE LOCOMOTION – The Hot Stewards
---------------------------------------------------------------------------



Tuning: standard 5-string (BEADG)


Intro
G|----------------------------------------------------------------|
D|----------------------------------------------------------------|
A|--------3-333------------3-3333--------------3-333--------------| 2x
E|-------------4-666-------------6666---------------4-666---------|
B|-4-4-343----------4-4-343-------------4-4-343----------4-4-3434-|

G|----------|
D|----------|
A|----------|
E|----------|
B|-444-3434-|

Pre-chorus
G|---------------------------------|
D|--------------------8-8-----5-5--|
A|-66666666------------------------| 2x
E|---------33333333—66-6--6-33-3-3-|
B|---------------------------------|

Chorus
G|-------------------------------------------|
D|-------------------------------------------|
A|-------------------------------------------|
E|-44444444111111114444444411111111-------6~-|
B|----------------------------------44-44----|

Verse
G|----------------------------------------------------|
D|----------------------------------------------------|
A|----------------------------------------------------|
E|-----------------4444444444444444----------------6~-|
B|-4444444444444444----------------4444444444444444---|

Pre-chorus
G|---------------------------------|
D|--------------------8-8-----5-5--|
A|-66666666------------------------| 2x
E|---------33333333—66-6--6-33-3-3-|
B|---------------------------------|

Chorus
G|-------------------------------------------|
D|-------------------------------------------|
A|-------------------------------------------|
E|-44444444111111114444444411111111-------6~-|
B|----------------------------------44-44----|

Verse
G|----------------------------------------------------|
D|----------------------------------------------------|
A|----------------------------------------------------|
E|-----------------4444444444444444----------------6~-|
B|-4444444444444444----------------4444444444444444---|

Bridge
G|-----------------------------------------------------------|
D|-----------------------------------------------------------|
A|--------3-333-----------3-333------------3-333-------------|
E|-------------4666------------6666-------------4666---------|
B|-4-4-343---------4-4-343----------4-4-343---------4-4-3434-|

Chorus
G|-------------------------------------------|
D|-------------------------------------------|
A|-------------------------------------------|
E|-44444444111111114444444411111111-------6~-|
B|----------------------------------44-44----|

Ending
G|------------------------------------------|
D|------------------------------------------|
A|------------------------------------------|
E|-------4~--------3~-----------------------|
B|-44-44-----44-44-----66-66-4~-------------|

| ~  vibrato
===========================================================================
            
Submit corrections


        The Locomotion lessons Hard to play? Try these video lessons and learn fast The Locomotion lessons
        
↑ Back to top | Tablatures and chords for acoustic guitar and electric guitar, ukulele, drums are parodies/interpretations of the original songs. You may use it for private study, scholarship, research or language learning purposes only