» » »

The Hot Stewards - Straight Up Bass

Artists:  A B C D E F G H I J K L M N O P Q R S T U V W X Y Z # 

Straight Up Bass

(ver. 1) Click to play this song!
The Hot Stewards
 Rating:
4/5 (4 votes)

 Straight Up lessons Tabs too difficult? Try these video lessons and learn fast
 
                ---------------------------------------------------------------------------
                       STRAIGHT UP – The Hot Stewards
---------------------------------------------------------------------------



Tuning: standard 5-string (BEADG)


Intro (bass comes in at 0:11)
G|-------------------------|
D|-------------------------|
A|-------------55----------|
E|----66-33-55----66-33-55-|
B|-33----------------------|

Verse
G|-------------------------------------------------------------------|
D|-------------------------------------------------------------------|
A|-------------------------------------------------------------------| 2x
E|---------------55566666666666666663333333355555555-----------------|
B|-33333333333333-----------------------------------3333333333333333-|

Pre-chorus
G|------------------------------------------------------------------|
D|------------------------------------------------------------------|
A|------------------------------------------------------------------|
E|-3333333355555555----------------3333333333333333555555555555-5-5-|
B|-----------------3333333333333333---------------------------------|

Chorus
G|-----------------------------------------------------------------|
D|-----------------------------------------------------------------|
A|-55555555555555-------------------333333333333444455-----555-----|
E|---------------5-666666666666-6-6--------------------------------|
B|-----------------------------------------------------333-----333-|

G|-------------------------------------------------------------------|
D|---------------77888888888888--------------------------------------|
A|-55555555555555-------------------333333333333444455-----555-------|
E|------------------------------6-6----------------------------------|
B|-----------------------------------------------------333-----33333-|

Bridge
G|-------------------------|
D|-------------------------|
A|-------------55----------| 2x
E|----66-33-55----66-33-55-|
B|-33----------------------|

Verse
G|-------------------------------------------------------------------|
D|-------------------------------------------------------------------|
A|-------------------------------------------------------------------| 2x
E|---------------55566666666666666663333333355555555-----------------|
B|-33333333333333-----------------------------------3333333333333333-|


Pre-chorus
G|------------------------------------------------------------------|
D|------------------------------------------------------------------|
A|------------------------------------------------------------------|
E|-3333333355555555----------------3333333333333333555555555555-5-5-|
B|-----------------3333333333333333---------------------------------|

Chorus
G|-----------------------------------------------------------------|
D|-----------------------------------------------------------------|
A|-55555555555555-------------------333333333333444455-----555-----|
E|---------------55666666666666-6-6--------------------------------|
B|-----------------------------------------------------333-----333-|

G|-------------------------------------------------------------------|
D|---------------77888888888888--------------------------------------|
A|-55555555555555-------------------333333333333444455-----555-------|
E|------------------------------6-6----------------------------------|
B|-----------------------------------------------------333-----33333-|

Bridge 2
G|-------------------------|
D|-------------------------|
A|-------------------------|
E|-----35-35-5-----35-35-5-|
B|-3-----------3-----------|

G|-------------------------|
D|-------------------------|
A|-------------------------| 3x
E|-----------------35-35-5-|
B|-33--33-33-33-33---------|

G|-----------------------|
D|-----------------------|
A|-----------------------| 
E|-----------------3335~-|
B|-33--33-33-33-33-------|

Chorus
G|-----------------------------------------------------------------|
D|-----------------------------------------------------------------|
A|----------------------------------333333333333444455-----555-----|
E|------------------------------6-6--------------------------------|
B|-----------------------------------------------------333-----333-|

G|-----------------------------------------------------|
D|---------------77888888888888------------------------|
A|-55555555555555-------------------3333333333334444---|
E|------------------------------6-6--------------------|
B|--------------------------------------------------33-|

Ending
G|----------|
D|----------|
A|----------|
E|----------|
B|-33-33-3-|

| ~  vibrato
===========================================================================
            
Submit corrections


        Straight Up lessons Hard to play? Try these video lessons and learn fast Straight Up lessons
        
↑ Back to top | Tablatures and chords for acoustic guitar and electric guitar, ukulele, drums are parodies/interpretations of the original songs. You may use it for private study, scholarship, research or language learning purposes only