» » »

The Hot Stewards - Smalltown Boy Bass

Artists:  A B C D E F G H I J K L M N O P Q R S T U V W X Y Z # 

Smalltown Boy Bass

(ver. 1) Click to play this song!
The Hot Stewards
 Rating:
4/5 (4 votes)

 Smalltown Boy lessons Tabs too difficult? Try these video lessons and learn fast
 
                ---------------------------------------------------------------------------
			SMALLTOWN BOY – The Hot Stewards
---------------------------------------------------------------------------



Tuning: standard 5-string (BEADG)


Verse
G|---------------------------------|
D|---------------------------------|
A|-----------------8-8-8-8-6-6-6-6-| 3x
E|-8-8-8-8-6-6-6-6-----------------|
B|---------------------------------|

G|---------------------------------|
D|---------------------------------|
A|-----------------8-8-8-8-6666666-| 
E|-8-8-8-8-6-6-6-6-----------------|
B|---------------------------------|

Pre-chorus
G|----------------------------------|
D|----------------------------------|
A|----------------------------------|
E|-88-88-8--------------------------|
B|---------44-44-4-66-66-6-99999999-|

Verse
G|---------------------------------|
D|---------------------------------|
A|-----------------8-8-8-8-6-6-6-6-| 
E|-8-8-8-8-6-6-6-6-----------------|
B|---------------------------------|

G|---------------------------------|
D|---------------------------------|
A|-----------------8-8-8-8-6666666-| 
E|-8-8-8-8-6-6-6-6-----------------|
B|---------------------------------|

Pre-chorus
G|----------------------------------|
D|----------------------------------|
A|----------------------------------|
E|-88-88-8--------------------------|
B|---------44-44-4-66-66-6-99999999-|

Chorus
G|----------------------------------|
D|----------------------------------|
A|----------------------------------| 2x
E|-8888888866666666-----------------|
B|-----------------6666666644444444-|

Verse
G|---------------------------------|
D|---------------------------------|
A|-----------------8-8-8-8-6-6-6-6-| 3x
E|-8-8-8-8-6-6-6-6-----------------|
B|---------------------------------|

G|----------------------------------|
D|----------------------------------|
A|-----------------8-8-8-8-66666666-| 
E|-8-8-8-8-6-6-6-6------------------|
B|----------------------------------|

Pre-chorus
G|----------------------------------|
D|----------------------------------|
A|----------------------------------|
E|-88-88-8--------------------------|
B|---------44-44-4-66-66-6-99999999-|

Chorus
G|----------------------------------|
D|----------------------------------|
A|----------------------------------| 2x
E|-8888888866666666-----------------|
B|-----------------6666666644444444-|

Pre-chorus
G|----------------------------------|
D|----------------------------------|
A|----------------------------------|
E|-88-88-8--------------------------|
B|---------44-44-4-66-66-6-99999999-|

Bridge
G|----------------------------------|
D|----------------------------------|
A|----------------------------------| 2x
E|-88888888-------------------------|
B|---------444444446666666699999999-|

Verse without bass, then:

Chorus
G|----------------------------------|
D|----------------------------------|
A|----------------------------------| 4x
E|-8888888866666666-----------------|
B|-----------------6666666644444444-|
					^^
		this part gradually slowing last time

Ending
G|----|
D|----|
A|----|
E|-8~-|
B|----|

| ~  vibrato
===========================================================================
            
Submit corrections


        Smalltown Boy lessons Hard to play? Try these video lessons and learn fast Smalltown Boy lessons
        
↑ Back to top | Tablatures and chords for acoustic guitar and electric guitar, ukulele, drums are parodies/interpretations of the original songs. You may use it for private study, scholarship, research or language learning purposes only