» » »

The Hot Stewards - Lay Your Love On Me Bass

Artists:  A B C D E F G H I J K L M N O P Q R S T U V W X Y Z # 

Lay Your Love On Me Bass

(ver. 1) Click to play this song!
The Hot Stewards
 Rating:
4/5 (4 votes)

 Lay Your Love On Me lessons Tabs too difficult? Try these video lessons and learn fast
 
                ---------------------------------------------------------------------------
                  LAY YOUR LOVE ON ME – The Hot Stewards
---------------------------------------------------------------------------



Tuning: standard 5-string (BEADG)


Intro
G|---------------------------|
D|---------------------------|
A|---------------------------|
E|-----6~-5~--------6-6/8----|
B|-3~---------3-5-6-------6~-|

Verse
G|-------------------------------------------------|
D|-------------------------------------------------|
A|-5-5-5-5-5-5-5-5-5-5-5-5-5-5-5-5-3-3-3-3-3-3-3-3-| 2x
E|-------------------------------------------------|
B|-------------------------------------------------|

Pre-chorus
G|------------------------------------------------------------------|
D|------------------------------------------------------------------|
A|-5555555555555555-----------------5~-7~-8~-1010-101010-----101010-|
E|-----------------5555555555555555---------------------------------|
B|-------------------------------------------------------888--------|

Chorus
G|------------------------------------------------------------------|
D|------------------------------------------------------------------|
A|------------------------------------------------------------------|
E|-----------------6666666655555555--------66668888-----------------|
B|-3333333333333333----------------33335566--------6666666666666666-|

Verse
G|-------------------------------------------------|
D|-------------------------------------------------|
A|-5-5-5-5-5-5-5-5-5-5-5-5-5-5-5-5-3-3-3-3-3-3-3-3-| 2x
E|-------------------------------------------------|
B|-------------------------------------------------|

Pre-chorus
G|------------------------------------------------------------------|
D|------------------------------------------------------------------|
A|-5555555555555555-----------------5~-7~-8~-1010-101010-----101010-|
E|-----------------5555555555555555---------------------------------|
B|-------------------------------------------------------888--------|

Chorus
G|------------------------------------------------------------------|
D|------------------------------------------------------------------|
A|------------------------------------------------------------------| 2x
E|-----------------6666666655555555--------66668888-----------------|
B|-3333333333333333----------------33335566--------6666666666666666-|

Bridge
G|-------------------------------------------------------|
D|-1212-121212-121212-121212-121212-121212-121212-121212-|
A|-------------------------------------------------------|
E|-------------------------------------------------------|
B|-------------------------------------------------------|

   play (3) only second time
G|-----------------------------------|
D|-----------------------------------|
A|-----------------------------------| 2x
E|-----------------------------------|
B|-(3)33-333-333-333-333-333-333-333-|

G|-------------------------------------------------------------------|
D|-------------------------------------------------------------------|
A|-------------------------------------------------------------------|
E|-366-666-666-666-655-555-555-555-566-666-666-666-688-888-899999999-|
B|-------------------------------------------------------------------|

G|---------------------------|
D|-1212-121212-121212-121212-|
A|---------------------------|
E|---------------------------|
B|---------------------------|

G|-----------------|
D|-----------------|
A|-----------------|
E|-----------------|
B|-3-3-3-3-3-3-3-3-|

Chorus
G|------------------------------------------------------------------|
D|------------------------------------------------------------------|
A|------------------------------------------------------------------|
E|-------------/12\6666666655555555--------66668888-----------------|
B|---------------------------------33335566--------6666666666666666-|

G|------------------------------------------------------------------|
D|------------------------------------------------------------------|
A|------------------------------------------------------------------|
E|-----------------6666666655555555--------66668888-----------------|
B|-3333333333333333----------------33335566--------6666666666666666-|

Ending
G|-------------|
D|-------------|
A|-------------|
E|-------6-8---|
B|-3-5-6-----6-|


| /  slide up
| \  slide down
| ~  vibrato

===========================================================================
            
Submit corrections


        Lay Your Love On Me lessons Hard to play? Try these video lessons and learn fast Lay Your Love On Me lessons
        
↑ Back to top | Tablatures and chords for acoustic guitar and electric guitar, ukulele, drums are parodies/interpretations of the original songs. You may use it for private study, scholarship, research or language learning purposes only