» » »

The Hot Stewards - Kids In America Bass

Artists:  A B C D E F G H I J K L M N O P Q R S T U V W X Y Z # 

Kids In America Bass

(ver. 1) Click to play this song!
The Hot Stewards
 Rating:
4/5 (4 votes)

 Kids In America lessons Tabs too difficult? Try these video lessons and learn fast
 
                ---------------------------------------------------------------------------
                     KIDS IN AMERICA – The Hot Stewards
---------------------------------------------------------------------------



Tuning: standard 5-string (BEADG)


No bass in intro

Verse
G|--------------------------------------------------|
D|--------------------------------------------------|
A|--------------------------------------------------|
E|-777777777777777755555555555555553333333355555555-|
B|--------------------------------------------------|

Pre-chorus
G|-------|
D|-------|
A|-------|
E|-0~-2~-|
B|-------|

Chorus
G|--------------------------------------------|
D|--------------------------------------------|
A|--------------------------------------------|
E|-33333333-----02-33333333-----02-333333335~-|
B|---------33333-----------33333--------------|

Verse
G|-----------------------------------|
D|---9---9---9---9---9---9---9---9\7-|
A|-----------------------------------|
E|-77--77--77--77--77--77--77--77----|
B|-----------------------------------|

G|-------------------------------------------------|
D|---7---7---7---7---5---5---7---7---2---2---2---2-|
A|-------------------------------------------------|
E|-55--55--55--55--33--33--55--55--00--00--00--00--|
B|-------------------------------------------------|
     
G|---------------------------------|
D|---9x------9---9---9---9---9---9-|
A|---------------------------------|
E|-77------77--77--77--77--77--77--|
B|---------------------------------|
      
G|---------------------------------|
D|---7---7---7---7---5---5---7---7-|
A|---------------------------------|
E|-55--55--55--55--33--33--55--55--|
B|---------------------------------|

Pre-chorus
G|-------|
D|-------|
A|-------|
E|-0~-2~-|
B|-------|

Chorus
G|--------------------------------------------|
D|--------------------------------------------|
A|--------------------------------------------|
E|-33333333-----02-33333333-----02-333333335~-|
B|---------33333-----------33333--------------|

Bridge
G|----------------------------------|
D|----------------------------------|
A|---------55555555-----------------| 3x
E|-77777777--------5555555533333333-|
B|----------------------------------|

G|--------------------------|
D|--------------------------|
A|---------55555555---------|
E|-77777777--------55555555-|
B|--------------------------|

G|---------------|
D|---------------|
A|---------------|
E|-3~-3~-3~-3~-5-|
B|---------------|

Verse
G|--------------------------------------------------|
D|--------------------------------------------------|
A|--------------------------------------------------|
E|-77777777777777777777777777777777-----------------|
B|--------------------------------------------------|

G|-------------------------------------------------|
D|-------------------------------------------------|
A|-------------------------------------------------|
E|-5555555555555555333333335555555500000000000000x-|
B|-------------------------------------------------|

G|-------------------------------------|
D|---9---9---9---9---9---9---9---9(\7)-|
A|-------------------------------------|
E|-77--77--77--77--77--77--77--77------|
B|-------------------------------------|
    
G|---------------------------------|
D|---7---7---7---7---5---5---7---7-|
A|---------------------------------|
E|-55--55--55--55--33--33--55--55--|
B|---------------------------------|

Pre-chorus
G|-------|
D|-------|
A|-------|
E|-0~-2~-|
B|-------|

Chorus
G|--------------------------------------------|
D|--------------------------------------------|
A|--------------------------------------------|
E|-33333333-----02-33333333-----02-333333335~-|
B|---------33333-----------33333--------------|

Bridge
G|----------------------------------|
D|----------------------------------|
A|---------55555555-----------------| 3x
E|-77777777--------5555555533333333-|
B|----------------------------------|

G|--------------------------|
D|--------------------------|
A|---------55555555---------|
E|-77777777--------55555555-|
B|--------------------------|

G|------------------|
D|------------------|
A|------------------|
E|-3~-3~-3~-3~-5-7\-|
B|------------------|

Break

Ending
G|----------------------------------|
D|----------------------------------|
A|----------------------------------| 4x
E|-77777777333333330000000022222222-|
B|----------------------------------|

G|-----|
D|-----|
A|-----|
E|-57\-|
B|-----|

| ~  let ring
| x  mute

===========================================================================
            
Submit corrections


        Kids In America lessons Hard to play? Try these video lessons and learn fast Kids In America lessons
        
↑ Back to top | Tablatures and chords for acoustic guitar and electric guitar, ukulele, drums are parodies/interpretations of the original songs. You may use it for private study, scholarship, research or language learning purposes only