» » »

The Hot Stewards - Edge Of Heaven Bass

Artists:  A B C D E F G H I J K L M N O P Q R S T U V W X Y Z # 

Edge Of Heaven Bass

(ver. 1) Click to play this song!
The Hot Stewards
 Rating:
4/5 (4 votes)

 Edge Of Heaven lessons Tabs too difficult? Try these video lessons and learn fast
 
                ---------------------------------------------------------------------------
                      EDGE OF HEAVEN – The Hot Stewards
---------------------------------------------------------------------------



Tuning: standard 5-string (BEADG)


No bass in intro

Intro (bass comes in at 0:17)
G|--------------------|
D|--------------------|
A|--------------------|
E|---------------3-35-|
B|----------------5---|

G|----------------------------------|
D|----------------------------------|
A|-----------------33x33x3x---------| 2x
E|-55x55x5x55x55x5x--------33x3-35x-|
B|-----------------------------5----|

Verse
G|----------------------------------|
D|----------------------------------|
A|-----------------55555555777775---|
E|-------------------------------87-|
B|----------------------------------|

G|----------------------------------|
D|---7-------7----------------------|
A|-----5h7-----5h7-55555555777775---| 2x
E|-5-------5---------------------87-|
B|----------------------------------|

G|----------------------------------|
D|---7-------7----------------------|
A|-----5h7-----5h7-5555555577777777-|
E|-5-------5------------------------|
B|----------------------------------|

Chorus
G|------------------|
D|------------------|
A|------------------| 3x
E|-1111111133333333-|
B|------------------|

G|------------------|
D|---77--55--77--55-|
A|-----77------77---|
E|-55------55-------|
B|------------------|

G|------------------|
D|------------------|
A|------------------| 3x
E|-1111111133333333-|
B|------------------|

G|------------------|
D|------------------|
A|-5555555577777777-|
E|------------------|
B|------------------|

Break
G|--------------------|
D|--------------------|
A|--------------------|
E|--------------------|
B|--------------------|

G|-----------------------------|
D|-----------------------------|
A|-----------------33x33x3x----| 
E|-55x55x5x55x55x5x--------33x-|
B|-----------------------------|

Verse
G|----------------------------------|
D|---7-------7----------------------|
A|-----5h7-----5h7-55555555777775---| 
E|---------5---------------------87-|
B|----------------------------------|

G|----------------------------------|
D|---7-------7----------------------|
A|-----5h7-----5h7-55555555777775---| 2x
E|-5-------5---------------------87-|
B|----------------------------------|

G|----------------------------------|
D|---7-------7----------------------|
A|-----5h7-----5h7-5555555577777777-|
E|-5-------5------------------------|
B|----------------------------------|

Chorus
G|------------------|
D|------------------|
A|------------------| 3x
E|-1111111133333333-|
B|------------------|

G|------------------|
D|---77--55--77--55-|
A|-----77------77---|
E|-55------55-------|
B|------------------|

G|------------------|
D|------------------|
A|------------------| 3x
E|-1111111133333333-|
B|------------------|

G|------------------|
D|------------------|
A|-5555555577777777-|
E|------------------|
B|------------------|

Break
G|--------------------|
D|--------------------|
A|--------------------|
E|---------------3-35-|
B|----------------5---|

G|----------------------------------|
D|----------------------------------|
A|-----------------33x33x3x---------| 2x
E|-55x55x5x55x55x5x--------33x3-35x-|
B|-----------------------------5----|

G|----------------------------------|
D|----------------------------------|
A|-----------------33333333---------| 2x
E|-5555555555555555--------33333-35-|
B|------------------------------5---|

Chorus
G|------------------|
D|------------------|
A|------------------| 3x
E|-1111111133333333-|
B|------------------|

G|------------------|
D|---77--55--77--55-|
A|-----77------77---|
E|-55------55-------|
B|------------------|

G|------------------|
D|------------------|
A|------------------| 3x
E|-1111111133333333-|
B|------------------|

G|------------|
D|------------|
A|-555555557x-|
E|------------|
B|------------|


| h  hammer on
| x  mute

===========================================================================
            
Submit corrections


        Edge Of Heaven lessons Hard to play? Try these video lessons and learn fast Edge Of Heaven lessons
        
↑ Back to top | Tablatures and chords for acoustic guitar and electric guitar, ukulele, drums are parodies/interpretations of the original songs. You may use it for private study, scholarship, research or language learning purposes only