Home » T » The Horrors »

The Horrors - Count In Fives Bass

Artists:  A B C D E F G H I J K L M N O P Q R S T U V W X Y Z # 

Count In Fives Bass

(ver. 1) Click to play this song!
The Horrors
Song Title: Count In Fives
Tuning: Standard Bass Tuning

Intro (after organ)

G|------------------------------|
D|------------------------------|  X5
A|-5-5-5-6-6-6-3-3-3/5-5-5------|
E|------------------------------|

G|------------------------------|
D|------------------------------|  X1
A|-5-5-5-6-6-6-3-3-3/5~~~~~~~~--|
E|------------------------------|

Verse
G|--------------|
D|--------------|  X16
A|--5--5/6/3/---|
E|--------------|

Chorus

G|---------------------|
D|---------------------|  X4
A|-5555/6666/3333/5555-| 
E|---------------------|

Verse
G|--------------|
D|--------------|  X16
A|--5--5/6/3/---|
E|--------------|

Chorus

G|---------------------|
D|---------------------|  X4
A|-5555/6666/3333/5555-| 
E|---------------------|

Verse
G|--------------|
D|--------------|  X16
A|--5--5/6/3/---|
E|--------------|

Chorus

G|---------------------|
D|---------------------|  X4
A|-5555/6666/3333/5555-| 
E|---------------------|

Outro

G|--------------|
D|--------------|  X16
A|--5--5/66/3/--|
E|--------------|

i think thats all. ace song. cant wait for album.
            
Submit corrections

↑ Back to top | Tablatures and chords for acoustic guitar and electric guitar, ukulele, drums are parodies/interpretations of the original songs. You may use it for private study, scholarship, research or language learning purposes only