Home » T » The Hoosiers »

The Hoosiers - Worst Case Scenario Tabs

Artists:  A B C D E F G H I J K L M N O P Q R S T U V W X Y Z # 

Worst Case Scenario Tabs

(ver. 1) Click to play this song!
The Hoosiers
No-one has tabbed out the whole song yet so i thought i'd give it a go and came
up with this. Enjoy !!!!!!!!!



Verse

e[------2-2--2-2-2---5--5-5-5---3--3-3-3---3--3-3-3-------|
B[------3-3--3-3-3---7--7-7-7---3--3-3-3---3--3-3-3-------|
G[------4-4--4-4-4---7--7-7-7---4--4-4-4---4--4-4-4-------|x4
D[------4-4--4-4-4---7--7-7-7---5--5-5-5---5--5-5-5-------|
A[--------------------------------------------------------|
E[--------------------------------------------------------|


Chorus

e[---5-5--5-5-5---5--5-5-5---3--3-3-3---3--3-3-3-----|
B[---7-7--7-7-7---5--5-5-5---3--3-3-3---3--3-3-3-----|
G[---7-7--7-7-7---6--6-6-6---4--4-4-4---4--4-4-4-----|
D[---7-7--7-7-7---7--7-7-7---5--5-5-5---5--5-5-5-----|
A[---------------------------------------------------|
E[---------------------------------------------------|

e[---5-5--5-5-5---5--5-5-5---3--3-3-3---3--3-3-3-----|
B[---7-7--7-7-7---5--5-5-5---3--3-3-3---3--3-3-3-----|
G[---7-7--7-7-7---6--6-6-6---4--4-4-4---4--4-4-4-----|
D[---7-7--7-7-7---7--7-7-7---5--5-5-5---5--5-5-5-----|
A[---------------------------------------------------|
E[---------------------------------------------------|

e[---5--5--5--5--5--5--5--5--3--3--3--3--3--3--3--3--|
B[---7--7--7--7--5--5--5--5--3--3--3--3--3--3--3--3--|
G[---7--7--7--7--6--6--6--6--4--4--4--4--4--4--4--4--|
D[---7--7--7--7--7--7--7--7--5--5--5--5--5--5--5--5--|
A[---------------------------------------------------|
E[---------------------------------------------------|

Solo

e[------------------------------------|
B[------------------------------------|
G[------------------------------------|
D[---9--9--9-9---9-12-11-9--7-4--2--4-|
A[------------------------------------|
E[------------------------------------|

e[------------------------------------|
B[------------------------------------|
G[------------------------------------|
D[---9--9--9-9---9-12-11-9--7-4--2--0-|
A[------------------------------------|
E[------------------------------------|


Then...

Repeat Verse

Repeat Chorus

Then there is no guitar while he sings

'I pray one day i'll live to see you break a smile
I pray one day i'll live to see you break a smile
I pray one day i'll live to see you break a smile'


Then........


e[------2-2--2-2-2---5-5--5-5-5---3-3--3-3-3---3-3--3-3-3-------|
B[------3-3--3-3-3---7-7--7-7-7---3-3--3-3-3---3-3--3-3-3-------|
G[------4-4--4-4-4---7-7--7-7-7---4-4--4-4-4---4-4--4-4-4-------|x4
D[------4-4--4-4-4---7-7--7-7-7---5-5--5-5-5---5-5--5-5-5-------|
A[--------------------------------------------------------------|
E[--------------------------------------------------------------|


Then Repeat Chorus




That's it. Please comment and tell me if there is any corrections needed.
            
Submit corrections

↑ Back to top | Tablatures and chords for acoustic guitar and electric guitar, ukulele, drums are parodies/interpretations of the original songs. You may use it for private study, scholarship, research or language learning purposes only