» » »

The Honorary Title - Only One Week Tabs

Artists:  A B C D E F G H I J K L M N O P Q R S T U V W X Y Z # 

Only One Week Tabs

(ver. 1) Click to play this song!
The Honorary Title
 Rating:
4/5 (4 votes)

 Only One Week lessons Tabs too difficult? Try these video lessons and learn fast
 
                ---------------------------------------------------------------------------
---------------------------------------------------------------------------

Upon further review, this tab needed help! So I went back over it and now
it's tons better. Sorry for posting total cr*p the first time.

I've re-written chords to how Jarrod plays them.

Tuning: Standard

Intro/ Verse part 1 (Repeat as needed)
    E     C#m     A     B
e|--0------4------5-----7--------------------------------------------------|
B|--0------5------5-----7--------------------------------------------------|
G|--1------6------6-----8--------------------------------------------------|
D|--2------6------7-----9--------------------------------------------------|
A|--2------4------7-----9--------------------------------------------------|
E|--0-------------5-----7--------------------------------------------------|
For the verse, he mainly plucks the root note, then a quick downstroke.

VERSE PART 2 (at 0:47 the first time, 1:42 second time)
PLAY THIS TWICE                
e|--5--5--5--5---7--7--7--7--|
B|--7--5--7--5---9--7--9--7--|
G|--6--6--6--6---8--8--8--8--|
D|--5--5--5--5---7--7--7--7--|
A|--7--7--7--7---9--9--9--9--|
E|--5--5--5--5---7--7--7--7--|

BACK TO VERSE PARTS 1 and 2

Chorus (at 1:57) (Repeat as needed)
    E      A      B     F#m7   The F#m7 MIGHT be an F#m.  Your call.
e|--0------0------2------2---------------------------2---------------------|
B|--0------2------4------2---------------------------2---------------------|
G|--1------2------4------2---------------------------2---------------------|
D|--2------2------4------2---------------------------4---------------------|
A|--2------0------2------4---------------------------4---------------------|
E|--0--------------------2---------------------------2---------------------|


Bridge (2:28) (Repeat as needed)
     C#m      A      E     B
e|----4-------5------0-----7-----------------------------------------------|
B|----5-------5------0-----7-----------------------------------------------|
G|----6-------6------1-----8-----------------------------------------------|
D|----6-------7------2-----9-----------------------------------------------|
A|----4-------7------2-----9-----------------------------------------------|
E|------------5------0-----7-----------------------------------------------|
On the last time through, keep strumming the B until 3:00 mark.

Bridget part 2 (at 3:00)
     F#m   B     F#m   B
e|---2~----7~----2~----7~--------------------------------------------------|
B|---2~----7~----2~----7~--------------------------------------------------|
G|---2~----8~----2~----8~--------------------------------------------------|
D|---4~----9~----4~----9~--------------------------------------------------|
A|---4~----9~----4~----9~--------------------------------------------------|
E|---2~----7~----2~----7~--------------------------------------------------|
Now go back to the CHORUS for the remainder of the song.
So you dont have to scroll up, the chords go: E, A, B, F#m7

End on an E chord, then this:
Little end part
 Chorus|
  End  |
e|--0~-|-2~---4~---2~---0~-------------------------|
B|--0~-|-4~---5~---2~---0~-------------------------|
G|--1~-|-4~---6~---2~---1~-------------------------|
D|--2~-|-4~---6~---4~---2~-------------------------|
A|--2~-|-2~---4~---4~---2~-------------------------|
E|--0~-|-----------2~---0~-------------------------|
Thats it! if i missed something, then message me or leave a comment in the
comments section on this page. if you think something is wrong then
let me know there and i'll fix it and give you credit. thanks

| /  slide up
| \  slide down
| h  hammer-on
| p  pull-off
| ~  vibrato
| +  harmonic
| x  Mute note
============================================================================
            
Submit corrections


        Only One Week lessons Hard to play? Try these video lessons and learn fast Only One Week lessons
        
↑ Back to top | Tablatures and chords for acoustic guitar and electric guitar, ukulele, drums are parodies/interpretations of the original songs. You may use it for private study, scholarship, research or language learning purposes only