» » »

The Honorary Title - Cut Short Tabs

Artists:  A B C D E F G H I J K L M N O P Q R S T U V W X Y Z # 

Cut Short Tabs

(ver. 1) Click to play this song!
The Honorary Title
 Rating:
3.8/5 (5 votes)

 Cut Short lessons Tabs too difficult? Try these video lessons and learn fast
 
                ----------------------------------------------------------------------------
----------------------------------------------------------------------------

Tuning: Standard EADGBe

NOTE: Strumming may NOT be exact, listen to the song and you will easily pick it up.

Intro/Verses/Outro:
*NOTE: This intro/verse part is by robby4life, 
so it's not totally my work. thanks for the help man!!
on the intro and verse, try
e-------------------------------------------------------------------------
B----7h8p7------7p5-------5p3-------2h3p2---------------------------------
G---------7---6-----6---4-----4---2---------------------------------------
D-0*--------0*--------0*--------0*----------------------------------------
A-------------------------------------------------------------------------
E-------------------------------------------------------------------------
*let ring

This part is by me, it sounds like it "could" be played in the background
of the verse.
e|-0-0-5p0--0-0-2p0--0-0-3p0--0-0-2p0---------------------------------------
B|-3-3-3-3--3-3-3-3--3-3-3-3--3-3-3-3---------------------------------------
G|-0-0-0-0--0-0-0-0--0-0-0-0--0-0-0-0---------------------------------------
D|-0-0-0-0--0-0-0-0--0-0-0-0--0-0-0-0---------------------------------------
A|-x-x-x-x--x-x-x-x--x-x-x-x--x-x-x-x---------------------------------------
E|-3-3-3-3--3-3-3-3--3-3-3-3--3-3-3-3---------------------------------------

Chorus/Bridge: The chords are simply C, Em, Am, G but I will show them.
e|-0-0-0-0--0-0-0-0--0-0-0-0--3-3-3-3---------------------------------------
B|-1-1-1-1--0-0-0-0--1-1-1-1--3-3-3-3---------------------------------------
G|-0-0-0-0--0-0-0-0--2-2-2-2--0-0-0-0------Play this 3 times----------------
D|-2-2-2-2--2-2-2-2--2-2-2-2--0-0-0-0---------------------------------------
A|-3-3-3-3--2-2-2-2--0-0-0-0--2-2-2-2---------------------------------------
E|-0-0-0-0--0-0-0-0--0-0-0-0--3-3-3-3---------------------------------------

Chorus End/Bridge End:
e|-0-0-0-0--0-0-0-0--0-0-0-0--3~---0~---0~---0~---3~------------------------
B|-1-1-1-1--0-0-0-0--1-1-1-1--3~---1~---0~---1~---3~------------------------
G|-0-0-0-0--0-0-0-0--2-2-2-2--0~---0~---0~---2~---0~------------------------
D|-2-2-2-2--2-2-2-2--2-2-2-2--0~---2~---2~---2~---0~------------------------
A|-3-3-3-3--2-2-2-2--0-0-0-0--2~---3~---2~---0~---2~------------------------
E|-0-0-0-0--0-0-0-0--0-0-0-0--3~---0~---0~---0~---3~------------------------

NOTE: There may be slight variations to the verses (such as single downstrokes instead 
strumming), but you will pick up on it, I promise.
Thanks again, robby4life
| p  pull-off
| ~  let ring
| x  Mute note
============================================================================
            
Submit corrections


        Cut Short lessons Hard to play? Try these video lessons and learn fast Cut Short lessons
        
↑ Back to top | Tablatures and chords for acoustic guitar and electric guitar, ukulele, drums are parodies/interpretations of the original songs. You may use it for private study, scholarship, research or language learning purposes only