» » »

The Hold Steady - How A Resurrection Really Feels Tabs

Artists:  A B C D E F G H I J K L M N O P Q R S T U V W X Y Z # 

How A Resurrection Really Feels Tabs

(ver. 1) Click to play this song!
The Hold Steady
 Rating:
4/5 (6 votes)

 How A Resurrection Really Feels lessons Tabs too difficult? Try these video lessons and learn fast
 
                How a Resurrection Really Feels
====================================
Intro
            A                 E    F#m D  A          C#m   D  F#m  A
e------------------------------------------------------4---------------|
B------------2-------------------------3----------------5----------2---|
G-----2----2-2---------2----2-1--------2--2----6r4-2-6-----7-------2---|
D-2h4--2h4---2-----2h4--2h4---2-----4--0--2----------6-----7--4----2---|
A------------0~~--------------2-----4-----0~~~-------4-----5--4----0~~-|
E-----------------------------0~~---2-------------------------2--------|
                                               ^(pre-bend and release)
Verse chords
A         C#m D
F#m        E D

riff right after verse
e------------------------------------|
B-3---3------------------------------|
G-2h4-2------2-----2--2--------------|
D-----0--2h4---2h4----2--------------|
A---------------------0~-------------|
E------------------------------------|

Chorus same as intro

End
A E D
("walk on back")

Chords:
A x02220
E 022100
C#m x46654
D xx0232
F#m 244222

Transcription is loose. Play chords how you prefer. Improvise! Have fun! I'm lazy.
            
Submit corrections


        How A Resurrection Really Feels lessons Hard to play? Try these video lessons and learn fast How A Resurrection Really Feels lessons
        
↑ Back to top | Tablatures and chords for acoustic guitar and electric guitar, ukulele, drums are parodies/interpretations of the original songs. You may use it for private study, scholarship, research or language learning purposes only