» » »

The Growlers - Wet Dreams Tabs

Artists:  A B C D E F G H I J K L M N O P Q R S T U V W X Y Z # 

Wet Dreams Tabs

(ver. 1) Click to play this song!
The Growlers
 Rating:
4/5 (4 votes)

 Wet Dreams lessons Tabs too difficult? Try these video lessons and learn fast
 
                                       This one's called Wet Dreams.


                       Wet + Dreams = los growlers


    Intro starts with an A minor

    e|--------------------------------------------------------------|
    b|--------------------------------------------------------------|
    g|----2---2---2---2---2---2---2---2---2---2---2---2---2---1-----|
    D|------2-------2-------2-------2-------2-------2-------2-------|
    A|--0-------0-------0-------0-------0-------0-------0-----------|
    E|--------------------------------------------------------------|

    e|--------------------------------------------------------------|
    b|--------1-----------------------------------------------------|
    g|----2-------2---1---2---2---2---1---2---2---2---1---2---2-----|
    D|------2-------2-------2-------2-------2-------2-------2-------|
    A|--0-------0-------0-------0-------0-------0-------0-----------|
    E|--------------------------------------------------------------|

    e|--------------------------------------------------------------|
    b|----------------1-------------------------------1---3---1-----|
    g|----2---1---2-------2---1---2---2---2---1---2--------------2--|
    D|------2-------2-------2-------2-------2-------2-------2------2|
    A|--0-------0-------0-------0-------0-------0-------0-----------|
    E|--------------------------------------------------------------|

    e|--------------------------------------1-1-1-|
    b|--------------------------------------1-1-1-|
    g|-2---2---1---2---2---2---1---2---2-0--2-2-2-| Softly whisper
    D|-------2-------2-------2-------2---0--3-3-3-| this cord...
    A|---0-------0-------0-------0-------0--3-3-3-| and build up
    E|--------------------------------------1-1-1-|.................

                           e|-1-1-1---------------------------------|
                           b|-1-1-1------------------1-1-0-1~-------|
                           g|-2-2-2------------------2-0-0-2~-------|
       build...            D|-3-3-3------------------2-2-0-2~-------|
                           A|-3-3-3------------------------0~-------|
    .......................E|-1-1-1---------------------------------|



    Main Riff: "Haven't had the guts, no I haven't had the balls,
                to tell you all about, the thoughts I can't keep out"

    e|--1--1--0-1--3-1---1--0-1-3-1---------------------------------|
    b|------------------------------1--1--0-1--3-1---1--0-1-3-1-----|
    g|--------------------------------------------------------------|
    D|--------------------------------------------------------------|
    A|--------------------------------------------------------------|
    E|--------------------------------------------------------------|


    Chorus: "She's been comin in my head, and there's a devil in our bed"


                           e|-1-1-1---------------------------------|
                           b|-1-1-1------------------1-1-0-1-1-1-1--|
                           g|-2-2-2------------------2-0-0-2-2-2-2--|
       build...            D|-3-3-3------------------2-2-0-2-2-2-2--|
                           A|-3-3-3------------------------0-0-0-0--|
    .......................E|-1-1-1---------------------------------|


    "Wet............ Dreams.............It's not easy comin' clean but   
     my urges cannot wean, I used to fight now I fiend, Wet Dreams..."

    e|-0-0-0---------5------------1----------1--------------1-------|
    b|-1-1-1---------5------------1-------1----1---1-----1----1--1--|
    g|-2-2-2---------6------------2------2--2----2------2--2----2---|
    D|-2-2-2---------7------------3-----3--------------3------------|
    A|-0-0-0---------7------------3---------------------------------|
    E|---------------5------------1---------------------------------|

    e|--------------------------------------------------------------|
    b|--1-1-0-1-1-1-1-----------------------------------------------|
    g|--2-0-0-2-2-2-2-----------------------------------------------|
    D|--2-2-0-2-2-2-2-----------------------------------------------|
    A|--------0-0-0-0-----------------------------------------------|
    E|--------------------------------------------------------------|





    ~ = let ring
            
Submit corrections


        Wet Dreams lessons Hard to play? Try these video lessons and learn fast Wet Dreams lessons
        
↑ Back to top | Tablatures and chords for acoustic guitar and electric guitar, ukulele, drums are parodies/interpretations of the original songs. You may use it for private study, scholarship, research or language learning purposes only