» » »

The Growlers - The Fruit Is For Everyone Tabs

Artists:  A B C D E F G H I J K L M N O P Q R S T U V W X Y Z # 

The Fruit Is For Everyone Tabs

(ver. 1) Click to play this song!
The Growlers
 Rating:
3/5 (25 votes)

 The Fruit Is For Everyone  lessons Tabs too difficult? Try these video lessons and learn fast
 
                |--13-11-------------------------11-13-11-------------------------------|
|--------13-11----11-13-13-11-13----------13-11----11-13-13-11-13-11----|
|--------------13-------------------------------13-------------------13-|
|-----------------------------------------------------------------------|
|-----------------------------------------------------------------------|
|-----------------------------------------------------------------------|


|--13-11-------------------------11-13-13-11----|
|--------13-11----11-13-13-11-13----------------|
|--------------13----------------------------13-|
|-----------------------------------------------|
|-----------------------------------------------|
|-----------------------------------------------|


|--------------------------------------------11----|
|-----11-13-13-11-13-11-------11-13-13-11-13----13-|
|--13-------------------13-13----------------------|
|--------------------------------------------------|
|--------------------------------------------------|
|--------------------------------------------------|


|-----------------------------------------------|
|-----11-13-13-11-------11-11-11-11-13-11----11-|
|--13-------------13-13-------------------13----|
|-----------------------------------------------|
|-----------------------------------------------|
|-----------------------------------------------|
            
Submit corrections


        The Fruit Is For Everyone  lessons Hard to play? Try these video lessons and learn fast The Fruit Is For Everyone  lessons
        
↑ Back to top | Tablatures and chords for acoustic guitar and electric guitar, ukulele, drums are parodies/interpretations of the original songs. You may use it for private study, scholarship, research or language learning purposes only